  0
SECTION
  2
HEADER
  9
$ACADVER
  1
AC1018
  9
$ACADMAINTVER
 70
     0
  9
$DWGCODEPAGE
  3
UNDEFINED
  9
$INSBASE
 10
0.0
 20
0.0
 30
0.0
  9
$EXTMIN
 10
1.000000000000000E+20
 20
1.000000000000000E+20
 30
1.000000000000000E+20
  9
$EXTMAX
 10
-1.000000000000000E+20
 20
-1.000000000000000E+20
 30
-1.000000000000000E+20
  9
$LIMMIN
 10
0.0
 20
0.0
  9
$LIMMAX
 10
12.0
 20
9.0
  9
$ORTHOMODE
 70
     0
  9
$REGENMODE
 70
     1
  9
$FILLMODE
 70
     1
  9
$QTEXTMODE
 70
     0
  9
$MIRRTEXT
 70
     1
  9
$LTSCALE
 40
1.0
  9
$ATTMODE
 70
     1
  9
$TEXTSIZE
 40
0.2
  9
$TRACEWID
 40
0.05
  9
$TEXTSTYLE
  7
Standard
  9
$CLAYER
  8
0
  9
$CELTYPE
  6
ByLayer
  9
$CECOLOR
 62
   256
  9
$CELTSCALE
 40
1.0
  9
$DISPSILH
 70
     0
  9
$DIMSCALE
 40
1.0
  9
$DIMASZ
 40
0.18
  9
$DIMEXO
 40
0.0625
  9
$DIMDLI
 40
0.38
  9
$DIMRND
 40
0.0
  9
$DIMDLE
 40
0.0
  9
$DIMEXE
 40
0.18
  9
$DIMTP
 40
0.0
  9
$DIMTM
 40
0.0
  9
$DIMTXT
 40
0.18
  9
$DIMCEN
 40
0.09
  9
$DIMTSZ
 40
0.0
  9
$DIMTOL
 70
     0
  9
$DIMLIM
 70
     0
  9
$DIMTIH
 70
     1
  9
$DIMTOH
 70
     1
  9
$DIMSE1
 70
     0
  9
$DIMSE2
 70
     0
  9
$DIMTAD
 70
     0
  9
$DIMZIN
 70
     0
  9
$DIMBLK
  1

  9
$DIMASO
 70
     1
  9
$DIMSHO
 70
     1
  9
$DIMPOST
  1

  9
$DIMAPOST
  1

  9
$DIMALT
 70
     0
  9
$DIMALTD
 70
     2
  9
$DIMALTF
 40
25.4
  9
$DIMLFAC
 40
1.0
  9
$DIMTOFL
 70
     0
  9
$DIMTVP
 40
0.0
  9
$DIMTIX
 70
     0
  9
$DIMSOXD
 70
     0
  9
$DIMSAH
 70
     0
  9
$DIMBLK1
  1

  9
$DIMBLK2
  1

  9
$DIMSTYLE
  2
Standard
  9
$DIMCLRD
 70
     0
  9
$DIMCLRE
 70
     0
  9
$DIMCLRT
 70
     0
  9
$DIMTFAC
 40
1.0
  9
$DIMGAP
 40
0.09
  9
$DIMJUST
 70
     0
  9
$DIMSD1
 70
     0
  9
$DIMSD2
 70
     0
  9
$DIMTOLJ
 70
     1
  9
$DIMTZIN
 70
     0
  9
$DIMALTZ
 70
     0
  9
$DIMALTTZ
 70
     0
  9
$DIMUPT
 70
     0
  9
$DIMDEC
 70
     4
  9
$DIMTDEC
 70
     4
  9
$DIMALTU
 70
     2
  9
$DIMALTTD
 70
     2
  9
$DIMTXSTY
  7
Standard
  9
$DIMAUNIT
 70
     0
  9
$DIMADEC
 70
     0
  9
$DIMALTRND
 40
0.0
  9
$DIMAZIN
 70
     0
  9
$DIMDSEP
 70
    46
  9
$DIMATFIT
 70
     3
  9
$DIMFRAC
 70
     0
  9
$DIMLDRBLK
  1

  9
$DIMLUNIT
 70
     2
  9
$DIMLWD
 70
    -2
  9
$DIMLWE
 70
    -2
  9
$DIMTMOVE
 70
     0
  9
$LUNITS
 70
     2
  9
$LUPREC
 70
     4
  9
$SKETCHINC
 40
0.1
  9
$FILLETRAD
 40
0.5
  9
$AUNITS
 70
     0
  9
$AUPREC
 70
     0
  9
$MENU
  1
.
  9
$ELEVATION
 40
0.0
  9
$PELEVATION
 40
0.0
  9
$THICKNESS
 40
0.0
  9
$LIMCHECK
 70
     0
  9
$CHAMFERA
 40
0.5
  9
$CHAMFERB
 40
0.5
  9
$CHAMFERC
 40
1.0
  9
$CHAMFERD
 40
0.0
  9
$SKPOLY
 70
     0
  9
$TDCREATE
 40
2456458.621944433
  9
$TDUCREATE
 40
2456458.580277778
  9
$TDUPDATE
 40
2456458.621944444
  9
$TDUUPDATE
 40
2456458.580277789
  9
$TDINDWG
 40
0.0000000116
  9
$TDUSRTIMER
 40
0.0000000116
  9
$USRTIMER
 70
     1
  9
$ANGBASE
 50
0.0
  9
$ANGDIR
 70
     0
  9
$PDMODE
 70
     0
  9
$PDSIZE
 40
0.0
  9
$PLINEWID
 40
0.0
  9
$SPLFRAME
 70
     0
  9
$SPLINETYPE
 70
     6
  9
$SPLINESEGS
 70
     8
  9
$HANDSEED
  5
32C
  9
$SURFTAB1
 70
     6
  9
$SURFTAB2
 70
     6
  9
$SURFTYPE
 70
     6
  9
$SURFU
 70
     6
  9
$SURFV
 70
     6
  9
$UCSBASE
  2

  9
$UCSNAME
  2

  9
$UCSORG
 10
0.0
 20
0.0
 30
0.0
  9
$UCSXDIR
 10
1.0
 20
0.0
 30
0.0
  9
$UCSYDIR
 10
0.0
 20
1.0
 30
0.0
  9
$UCSORTHOREF
  2

  9
$UCSORTHOVIEW
 70
     0
  9
$UCSORGTOP
 10
0.0
 20
0.0
 30
0.0
  9
$UCSORGBOTTOM
 10
0.0
 20
0.0
 30
0.0
  9
$UCSORGLEFT
 10
0.0
 20
0.0
 30
0.0
  9
$UCSORGRIGHT
 10
0.0
 20
0.0
 30
0.0
  9
$UCSORGFRONT
 10
0.0
 20
0.0
 30
0.0
  9
$UCSORGBACK
 10
0.0
 20
0.0
 30
0.0
  9
$PUCSBASE
  2

  9
$PUCSNAME
  2

  9
$PUCSORG
 10
0.0
 20
0.0
 30
0.0
  9
$PUCSXDIR
 10
1.0
 20
0.0
 30
0.0
  9
$PUCSYDIR
 10
0.0
 20
1.0
 30
0.0
  9
$PUCSORTHOREF
  2

  9
$PUCSORTHOVIEW
 70
     0
  9
$PUCSORGTOP
 10
0.0
 20
0.0
 30
0.0
  9
$PUCSORGBOTTOM
 10
0.0
 20
0.0
 30
0.0
  9
$PUCSORGLEFT
 10
0.0
 20
0.0
 30
0.0
  9
$PUCSORGRIGHT
 10
0.0
 20
0.0
 30
0.0
  9
$PUCSORGFRONT
 10
0.0
 20
0.0
 30
0.0
  9
$PUCSORGBACK
 10
0.0
 20
0.0
 30
0.0
  9
$USERI1
 70
     0
  9
$USERI2
 70
     0
  9
$USERI3
 70
     0
  9
$USERI4
 70
     0
  9
$USERI5
 70
     0
  9
$USERR1
 40
0.0
  9
$USERR2
 40
0.0
  9
$USERR3
 40
0.0
  9
$USERR4
 40
0.0
  9
$USERR5
 40
0.0
  9
$WORLDVIEW
 70
     1
  9
$SHADEDGE
 70
     3
  9
$SHADEDIF
 70
    70
  9
$TILEMODE
 70
     1
  9
$MAXACTVP
 70
    64
  9
$PINSBASE
 10
0.0
 20
0.0
 30
0.0
  9
$PLIMCHECK
 70
     0
  9
$PEXTMIN
 10
1.000000000000000E+20
 20
1.000000000000000E+20
 30
1.000000000000000E+20
  9
$PEXTMAX
 10
-1.000000000000000E+20
 20
-1.000000000000000E+20
 30
-1.000000000000000E+20
  9
$PLIMMIN
 10
0.0
 20
0.0
  9
$PLIMMAX
 10
12.0
 20
9.0
  9
$UNITMODE
 70
     0
  9
$VISRETAIN
 70
     1
  9
$PLINEGEN
 70
     0
  9
$PSLTSCALE
 70
     1
  9
$TREEDEPTH
 70
  3020
  9
$CMLSTYLE
  2
Standard
  9
$CMLJUST
 70
     0
  9
$CMLSCALE
 40
1.0
  9
$PROXYGRAPHICS
 70
     1
  9
$MEASUREMENT
 70
     0
  9
$CELWEIGHT
370
    -1
  9
$ENDCAPS
280
     0
  9
$JOINSTYLE
280
     0
  9
$LWDISPLAY
290
     0
  9
$INSUNITS
 70
     4
  9
$HYPERLINKBASE
  1

  9
$STYLESHEET
  1

  9
$XEDIT
290
     1
  9
$CEPSNTYPE
380
     0
  9
$PSTYLEMODE
290
     1
  9
$FINGERPRINTGUID
  2
{541CD178-E3D2-FBF7-F896-40B8E9C76893}
  9
$VERSIONGUID
  2
{FAEB1C32-E019-11D5-929B-00C0DF256EC4}
  9
$EXTNAMES
290
     1
  9
$PSVPSCALE
 40
0.0
  9
$OLESTARTUP
290
     0
  9
$SORTENTS
280
   127
  9
$INDEXCTL
280
     0
  9
$HIDETEXT
280
     1
  9
$XCLIPFRAME
290
     0
  9
$HALOGAP
280
     0
  9
$OBSCOLOR
 70
   257
  9
$OBSLTYPE
280
     0
  9
$INTERSECTIONDISPLAY
280
     0
  9
$INTERSECTIONCOLOR
 70
   257
  9
$DIMASSOC
280
     2
  9
$PROJECTNAME
  1

  0
ENDSEC
  0
SECTION
  2
CLASSES
  0
CLASS
  1
ACDBDICTIONARYWDFLT
  2
AcDbDictionaryWithDefault
  3
ObjectDBX Classes
 90
        0
 91
        4
280
     0
281
     0
  0
CLASS
  1
VISUALSTYLE
  2
AcDbVisualStyle
  3
ObjectDBX Classes
 90
     4095
 91
        4
280
     0
281
     0
  0
CLASS
  1
MATERIAL
  2
AcDbMaterial
  3
ObjectDBX Classes
 90
     1153
 91
        4
280
     0
281
     0
  0
ENDSEC
  0
SECTION
  2
TABLES
  0
TABLE
  2
VPORT
  5
8
330
0
100
AcDbSymbolTable
 70
     1
  0
VPORT
  5
29
330
8
100
AcDbSymbolTableRecord
100
AcDbViewportTableRecord
  2
*Active
 70
     0
 10
0.0
 20
0.0
 11
1.0
 21
1.0
 12
10.42990654205607
 22
4.5
 13
0.0
 23
0.0
 14
0.5
 24
0.5
 15
0.5
 25
0.5
 16
0.0
 26
0.0
 36
1.0
 17
0.0
 27
0.0
 37
0.0
 40
9.0
 41
1.972972972850329
 42
50.0
 43
0.0
 44
0.0
 50
0.0
 51
0.0
 71
     0
 72
   100
 73
     1
 74
     3
 75
     0
 76
     0
 77
     0
 78
     0
281
     0
 65
     1
110
0.0
120
0.0
130
0.0
111
1.0
121
0.0
131
0.0
112
0.0
122
1.0
132
0.0
 79
     0
146
0.0
  0
ENDTAB
  0
TABLE
  2
LTYPE
  5
5
330
0
100
AcDbSymbolTable
 70
     1
  0
LTYPE
  5
14
330
5
100
AcDbSymbolTableRecord
100
AcDbLinetypeTableRecord
  2
ByBlock
 70
     0
  3

 72
    65
 73
     0
 40
0.0
  0
LTYPE
  5
15
330
5
100
AcDbSymbolTableRecord
100
AcDbLinetypeTableRecord
  2
ByLayer
 70
     0
  3

 72
    65
 73
     0
 40
0.0
  0
LTYPE
  5
16
330
5
100
AcDbSymbolTableRecord
100
AcDbLinetypeTableRecord
  2
Continuous
 70
     0
  3
Solid line
 72
    65
 73
     0
 40
0.0
  0
ENDTAB
  0
TABLE
  2
LAYER
  5
2
330
0
100
AcDbSymbolTable
 70
     7
  0
LAYER
  5
10
330
2
100
AcDbSymbolTableRecord
100
AcDbLayerTableRecord
  2
0
 70
     0
 62
     7
  6
Continuous
370
    -3
390
F
  0
LAYER
  5
40
330
2
100
AcDbSymbolTableRecord
100
AcDbLayerTableRecord
  2
Signal_01
 70
     0
 62
     3
420
    65280
  6
Continuous
370
    -3
390
F
  0
LAYER
  5
60
330
2
100
AcDbSymbolTableRecord
100
AcDbLayerTableRecord
  2
Signal_02
 70
     0
 62
     5
420
      255
  6
Continuous
370
    -3
390
F
  0
LAYER
  5
63
330
2
100
AcDbSymbolTableRecord
100
AcDbLayerTableRecord
  2
SR_Top
 70
     0
 62
     2
420
 16776960
  6
Continuous
370
    -3
390
F
  0
LAYER
  5
A9
330
2
100
AcDbSymbolTableRecord
100
AcDbLayerTableRecord
  2
SP_Top
 70
     0
 62
    96
420
    32768
  6
Continuous
370
    -3
390
F
  0
LAYER
  5
EE
330
2
100
AcDbSymbolTableRecord
100
AcDbLayerTableRecord
  2
Via_1_2_3
 70
     0
 62
     5
420
      255
  6
Continuous
370
    -3
390
F
  0
LAYER
  5
283
330
2
100
AcDbSymbolTableRecord
100
AcDbLayerTableRecord
  2
Silk_Screen
 70
     0
 62
     3
420
    65280
  6
Continuous
370
    -3
390
F
  0
ENDTAB
  0
TABLE
  2
STYLE
  5
3
330
0
100
AcDbSymbolTable
 70
     1
  0
STYLE
  5
11
330
3
100
AcDbSymbolTableRecord
100
AcDbTextStyleTableRecord
  2
Standard
 70
     0
 40
0.0
 41
1.0
 50
0.0
 71
     0
 42
0.2
  3
txt
  4

  0
ENDTAB
  0
TABLE
  2
VIEW
  5
6
330
0
100
AcDbSymbolTable
 70
     0
  0
ENDTAB
  0
TABLE
  2
UCS
  5
7
330
0
100
AcDbSymbolTable
 70
     0
  0
ENDTAB
  0
TABLE
  2
APPID
  5
9
330
0
100
AcDbSymbolTable
 70
     1
  0
APPID
  5
12
330
9
100
AcDbSymbolTableRecord
100
AcDbRegAppTableRecord
  2
ACAD
 70
     0
  0
ENDTAB
  0
TABLE
  2
DIMSTYLE
  5
A
330
0
100
AcDbSymbolTable
 70
     1
100
AcDbDimStyleTable
  0
DIMSTYLE
105
27
330
A
100
AcDbSymbolTableRecord
100
AcDbDimStyleTableRecord
  2
Standard
 70
     0
340
11
  0
ENDTAB
  0
TABLE
  2
BLOCK_RECORD
  5
1
330
0
100
AcDbSymbolTable
 70
     1
  0
BLOCK_RECORD
  5
1F
330
1
100
AcDbSymbolTableRecord
100
AcDbBlockTableRecord
  2
*Model_Space
340
22
  0
BLOCK_RECORD
  5
1B
330
1
100
AcDbSymbolTableRecord
100
AcDbBlockTableRecord
  2
*Paper_Space
340
1E
  0
BLOCK_RECORD
  5
23
330
1
100
AcDbSymbolTableRecord
100
AcDbBlockTableRecord
  2
*Paper_Space0
340
26
  0
ENDTAB
  0
ENDSEC
  0
SECTION
  2
BLOCKS
  0
BLOCK
  5
20
330
1F
100
AcDbEntity
  8
0
100
AcDbBlockBegin
  2
*Model_Space
 70
     0
 10
0.0
 20
0.0
 30
0.0
  3
*Model_Space
  1

  0
ENDBLK
  5
21
330
1F
100
AcDbEntity
  8
0
100
AcDbBlockEnd
  0
BLOCK
  5
1C
330
1B
100
AcDbEntity
 67
     1
  8
0
100
AcDbBlockBegin
  2
*Paper_Space
 70
     0
 10
0.0
 20
0.0
 30
0.0
  3
*Paper_Space
  1

  0
ENDBLK
  5
1D
330
1B
100
AcDbEntity
 67
     1
  8
0
100
AcDbBlockEnd
  0
BLOCK
  5
24
330
23
100
AcDbEntity
  8
0
100
AcDbBlockBegin
  2
*Paper_Space0
 70
     0
 10
0.0
 20
0.0
 30
0.0
  3
*Paper_Space0
  1

  0
ENDBLK
  5
25
330
23
100
AcDbEntity
  8
0
100
AcDbBlockEnd
  0
ENDSEC
  0
SECTION
  2
ENTITIES
  0
LWPOLYLINE
  5
3F
330
1F
100
AcDbEntity
  8
Signal_01
100
AcDbPolyline
 90
       12
 70
     1
 43
0.0
 10
0.3735
 20
15.45
 10
0.3735
 20
15.55
 10
0.15
 20
15.55
 10
-0.1
 20
15.3
 10
-8.700000000000001
 20
15.3
 10
-8.700000000000001
 20
16.1
 10
-0.1
 20
16.1
 10
0.15
 20
15.85
 10
0.3735
 20
15.85
 10
0.3735
 20
15.95
 10
0.7485
 20
15.95
 10
0.7485
 20
15.45
  0
LWPOLYLINE
  5
41
330
1F
100
AcDbEntity
  8
Signal_01
100
AcDbPolyline
 90
       12
 70
     1
 43
0.0
 10
1.9735
 20
15.45
 10
1.9735
 20
15.5545
 10
1.5735
 20
15.5545
 10
1.5735
 20
15.45
 10
1.1985
 20
15.45
 10
1.1985
 20
15.95
 10
1.5735
 20
15.95
 10
1.5735
 20
15.8545
 10
1.9735
 20
15.8545
 10
1.9735
 20
15.95
 10
2.3485
 20
15.95
 10
2.3485
 20
15.45
  0
LWPOLYLINE
  5
42
330
1F
100
AcDbEntity
  8
Signal_01
100
AcDbPolyline
 90
        4
 70
     1
 43
0.0
 10
3.7
 20
13.7
 10
3.7
 20
14.7
 10
4.9
 20
14.7
 10
4.9
 20
13.7
  0
LWPOLYLINE
  5
43
330
1F
100
AcDbEntity
  8
Signal_01
100
AcDbPolyline
 90
       12
 70
     1
 43
0.0
 10
3.7
 20
15.2
 10
3.7
 20
15.55
 10
3.1735
 20
15.55
 10
3.1735
 20
15.45
 10
2.7985
 20
15.45
 10
2.7985
 20
15.95
 10
3.1735
 20
15.95
 10
3.1735
 20
15.85
 10
3.7
 20
15.85
 10
3.7
 20
16.2
 10
4.9
 20
16.2
 10
4.9
 20
15.2
  0
LWPOLYLINE
  5
44
330
1F
100
AcDbEntity
  8
Signal_01
100
AcDbPolyline
 90
       16
 70
     1
 43
0.0
 10
9.5
 20
14.425
 10
9.5
 20
14.8
 10
9.6
 20
14.8
 10
9.6
 20
15.2
 10
8.3
 20
15.2
 10
8.3
 20
16.2
 10
9.5
 20
16.2
 10
9.5
 20
15.8
 10
10.0
 20
15.8
 10
10.0
 20
16.2
 10
11.2
 20
16.2
 10
11.2
 20
15.2
 10
9.9
 20
15.2
 10
9.9
 20
14.8
 10
10.0
 20
14.8
 10
10.0
 20
14.425
  0
LWPOLYLINE
  5
45
330
1F
100
AcDbEntity
  8
Signal_01
100
AcDbPolyline
 90
       16
 70
     1
 43
0.0
 10
9.9
 20
13.2
 10
11.2
 20
13.2
 10
11.2
 20
12.2
 10
10.0
 20
12.2
 10
10.0
 20
12.6
 10
9.5
 20
12.6
 10
9.5
 20
12.2
 10
8.3
 20
12.2
 10
8.3
 20
13.2
 10
9.6
 20
13.2
 10
9.6
 20
13.6
 10
9.5
 20
13.6
 10
9.5
 20
13.975
 10
10.0
 20
13.975
 10
10.0
 20
13.6
 10
9.9
 20
13.6
  0
LWPOLYLINE
  5
46
330
1F
100
AcDbEntity
  8
Signal_01
100
AcDbPolyline
 90
        4
 70
     1
 43
0.0
 10
14.6
 20
13.7
 10
14.6
 20
14.7
 10
15.8
 20
14.7
 10
15.8
 20
13.7
  0
LWPOLYLINE
  5
47
330
1F
100
AcDbEntity
  8
Signal_01
100
AcDbPolyline
 90
       16
 70
     1
 43
0.0
 10
16.5995
 20
18.25
 10
16.5995
 20
18.3
 10
15.866
 20
18.3
 10
15.4005
 20
17.8345
 10
15.4005
 20
16.2
 10
15.8
 20
16.2
 10
15.8
 20
15.2
 10
14.6
 20
15.2
 10
14.6
 20
16.2
 10
15.0
 20
16.2
 10
15.0
 20
18.0
 10
15.7
 20
18.7
 10
16.5995
 20
18.7
 10
16.5995
 20
18.75
 10
16.9745
 20
18.75
 10
16.9745
 20
18.25
  0
LWPOLYLINE
  5
48
330
1F
100
AcDbEntity
  8
Signal_01
100
AcDbPolyline
 90
       16
 70
     1
 43
0.0
 10
16.6005
 20
9.75
 10
16.6005
 20
9.8
 10
15.7
 20
9.8
 10
15.0
 20
10.5
 10
15.0
 20
12.2
 10
14.6
 20
12.2
 10
14.6
 20
13.2
 10
15.8
 20
13.2
 10
15.8
 20
12.2
 10
15.4005
 20
12.2
 10
15.4005
 20
10.6655
 10
15.866
 20
10.2
 10
16.6005
 20
10.2
 10
16.6005
 20
10.25
 10
16.9755
 20
10.25
 10
16.9755
 20
9.75
  0
LWPOLYLINE
  5
49
330
1F
100
AcDbEntity
  8
Signal_01
100
AcDbPolyline
 90
        6
 70
     1
 43
0.0
 10
18.2255
 20
7.915
 10
18.2255
 20
8.290000000000001
 10
19.0255
 20
8.290000000000001
 10
19.0255
 20
8.415000000000001
 10
19.4005
 20
8.415000000000001
 10
19.4005
 20
7.915
  0
LWPOLYLINE
  5
4A
330
1F
100
AcDbEntity
  8
Signal_01
100
AcDbPolyline
 90
       17
 70
     1
 43
0.0
 10
18.2255
 20
8.74
 10
18.2255
 20
9.115
 10
18.5755
 20
9.465
 10
18.5755
 20
9.8
 10
17.8005
 20
9.8
 10
17.8005
 20
9.75
 10
17.4255
 20
9.75
 10
17.4255
 20
10.25
 10
17.8005
 20
10.25
 10
17.8005
 20
10.2
 10
18.5755
 20
10.2
 10
18.5755
 20
10.465
 10
19.1755
 20
10.465
 10
19.1755
 20
9.465
 10
19.141
 20
9.465
 10
18.7255
 20
9.0495
 10
18.7255
 20
8.74
  0
LWPOLYLINE
  5
4B
330
1F
100
AcDbEntity
  8
Signal_01
100
AcDbPolyline
 90
        6
 70
     1
 43
0.0
 10
18.2255
 20
16.415
 10
18.2255
 20
16.79
 10
19.0255
 20
16.79
 10
19.0255
 20
16.915
 10
19.4005
 20
16.915
 10
19.4005
 20
16.415
  0
LWPOLYLINE
  5
4C
330
1F
100
AcDbEntity
  8
Signal_01
100
AcDbPolyline
 90
       17
 70
     1
 43
0.0
 10
18.2255
 20
17.24
 10
18.2255
 20
17.615
 10
18.5755
 20
17.965
 10
18.5755
 20
18.3
 10
17.7995
 20
18.3
 10
17.7995
 20
18.25
 10
17.4245
 20
18.25
 10
17.4245
 20
18.75
 10
17.7995
 20
18.75
 10
17.7995
 20
18.7
 10
18.5755
 20
18.7
 10
18.5755
 20
18.965
 10
19.1755
 20
18.965
 10
19.1755
 20
17.965
 10
19.141
 20
17.965
 10
18.7255
 20
17.5495
 10
18.7255
 20
17.24
  0
LWPOLYLINE
  5
4D
330
1F
100
AcDbEntity
  8
Signal_01
100
AcDbPolyline
 90
        8
 70
     1
 43
0.0
 10
20.0755
 20
17.965
 10
20.0755
 20
19.45
 10
17.8
 20
19.45
 10
17.8
 20
23.95
 10
22.8
 20
23.95
 10
22.8
 20
19.45
 10
20.6755
 20
19.45
 10
20.6755
 20
17.965
  0
LWPOLYLINE
  5
4E
330
1F
100
AcDbEntity
  8
Signal_01
100
AcDbPolyline
 90
       12
 70
     1
 43
0.0
 10
20.5255
 20
7.915
 10
20.5255
 20
7.965
 10
20.2255
 20
7.965
 10
20.2255
 20
7.915
 10
19.8505
 20
7.915
 10
19.8505
 20
8.415000000000001
 10
20.2255
 20
8.415000000000001
 10
20.2255
 20
8.365
 10
20.5255
 20
8.365
 10
20.5255
 20
8.415000000000001
 10
20.9005
 20
8.415000000000001
 10
20.9005
 20
7.915
  0
LWPOLYLINE
  5
4F
330
1F
100
AcDbEntity
  8
Signal_01
100
AcDbPolyline
 90
       12
 70
     1
 43
0.0
 10
20.5255
 20
16.415
 10
20.5255
 20
16.465
 10
20.2255
 20
16.465
 10
20.2255
 20
16.415
 10
19.8505
 20
16.415
 10
19.8505
 20
16.915
 10
20.2255
 20
16.915
 10
20.2255
 20
16.865
 10
20.5255
 20
16.865
 10
20.5255
 20
16.915
 10
20.9005
 20
16.915
 10
20.9005
 20
16.415
  0
LWPOLYLINE
  5
50
330
1F
100
AcDbEntity
  8
Signal_01
100
AcDbPolyline
 90
        6
 70
     1
 43
0.0
 10
21.7255
 20
8.290000000000001
 10
22.5255
 20
8.290000000000001
 10
22.5255
 20
7.915
 10
21.3505
 20
7.915
 10
21.3505
 20
8.415000000000001
 10
21.7255
 20
8.415000000000001
  0
LWPOLYLINE
  5
51
330
1F
100
AcDbEntity
  8
Signal_01
100
AcDbPolyline
 90
        6
 70
     1
 43
0.0
 10
21.7255
 20
16.79
 10
22.5255
 20
16.79
 10
22.5255
 20
16.415
 10
21.3505
 20
16.415
 10
21.3505
 20
16.915
 10
21.7255
 20
16.915
  0
LWPOLYLINE
  5
52
330
1F
100
AcDbEntity
  8
Signal_01
100
AcDbPolyline
 90
       16
 70
     1
 43
0.0
 10
23.3
 20
13.95
 10
23.3
 20
14.0
 10
22.8
 20
14.0
 10
22.8
 20
10.95
 10
20.6755
 20
10.95
 10
20.6755
 20
9.465
 10
20.0755
 20
9.465
 10
20.0755
 20
10.95
 10
17.8
 20
10.95
 10
17.8
 20
15.915
 10
22.8
 20
15.915
 10
22.8
 20
14.4
 10
23.3
 20
14.4
 10
23.3
 20
14.45
 10
23.675
 20
14.45
 10
23.675
 20
13.95
  0
LWPOLYLINE
  5
53
330
1F
100
AcDbEntity
  8
Signal_01
100
AcDbPolyline
 90
       21
 70
     1
 43
0.0
 10
24.8
 20
13.2
 10
26.0
 20
13.2
 10
26.0
 20
12.2
 10
25.5995
 20
12.2
 10
25.5995
 20
10.5
 10
24.8995
 20
9.8
 10
22.1755
 20
9.8
 10
22.1755
 20
9.465
 10
22.5255
 20
9.115
 10
22.5255
 20
8.74
 10
22.0255
 20
8.74
 10
22.0255
 20
9.0495
 10
21.61
 20
9.465
 10
21.5755
 20
9.465
 10
21.5755
 20
10.465
 10
22.1755
 20
10.465
 10
22.1755
 20
10.2
 10
24.7335
 20
10.2
 10
25.199
 20
10.6655
 10
25.199
 20
12.2
 10
24.8
 20
12.2
  0
LWPOLYLINE
  5
54
330
1F
100
AcDbEntity
  8
Signal_01
100
AcDbPolyline
 90
       21
 70
     1
 43
0.0
 10
25.5995
 20
16.2
 10
26.0
 20
16.2
 10
26.0
 20
15.2
 10
24.8
 20
15.2
 10
24.8
 20
16.2
 10
25.199
 20
16.2
 10
25.199
 20
17.8345
 10
24.7335
 20
18.3
 10
22.1755
 20
18.3
 10
22.1755
 20
17.965
 10
22.5255
 20
17.615
 10
22.5255
 20
17.24
 10
22.0255
 20
17.24
 10
22.0255
 20
17.5495
 10
21.61
 20
17.965
 10
21.5755
 20
17.965
 10
21.5755
 20
18.965
 10
22.1755
 20
18.965
 10
22.1755
 20
18.7
 10
24.8995
 20
18.7
 10
25.5995
 20
18.0
  0
LWPOLYLINE
  5
55
330
1F
100
AcDbEntity
  8
Signal_01
100
AcDbPolyline
 90
       92
 70
     1
 43
0.0
 10
27.947
 20
28.0655
 10
27.95
 20
28.0
 10
27.947
 20
27.9345
 10
27.9385
 20
27.87
 10
27.9245
 20
27.806
 10
27.905
 20
27.7435
 10
27.8795
 20
27.683
 10
27.8495
 20
27.625
 10
27.8145
 20
27.57
 10
27.7745
 20
27.518
 10
27.7305
 20
27.4695
 10
27.682
 20
27.4255
 10
27.63
 20
27.3855
 10
27.575
 20
27.3505
 10
27.517
 20
27.3205
 10
27.5
 20
27.3135
 10
27.5
 20
18.945
 10
27.774
 20
18.945
 10
27.774
 20
18.445
 10
27.5
 20
18.445
 10
27.5
 20
17.85
 10
27.773
 20
17.85
 10
27.773
 20
17.35
 10
27.5
 20
17.35
 10
27.5
 20
14.752
 10
27.2465
 20
14.4985
 10
26.6485
 20
13.9
 10
26.0
 20
13.9
 10
26.0
 20
13.7
 10
24.8
 20
13.7
 10
24.8
 20
14.0
 10
24.5
 20
14.0
 10
24.5
 20
13.95
 10
24.125
 20
13.95
 10
24.125
 20
14.45
 10
24.5
 20
14.45
 10
24.5
 20
14.4
 10
24.8
 20
14.4
 10
24.8
 20
14.7
 10
26.0
 20
14.7
 10
26.0
 20
14.5
 10
26.4
 20
14.5
 10
26.9
 20
15.0
 10
26.9
 20
27.3135
 10
26.883
 20
27.3205
 10
26.825
 20
27.3505
 10
26.77
 20
27.3855
 10
26.718
 20
27.4255
 10
26.6695
 20
27.4695
 10
26.6255
 20
27.518
 10
26.5855
 20
27.57
 10
26.5505
 20
27.625
 10
26.5205
 20
27.683
 10
26.495
 20
27.7435
 10
26.4755
 20
27.806
 10
26.4615
 20
27.87
 10
26.453
 20
27.9345
 10
26.45
 20
28.0
 10
26.453
 20
28.0655
 10
26.4615
 20
28.13
 10
26.4755
 20
28.194
 10
26.495
 20
28.2565
 10
26.5205
 20
28.317
 10
26.5505
 20
28.375
 10
26.5855
 20
28.43
 10
26.6255
 20
28.482
 10
26.6695
 20
28.5305
 10
26.718
 20
28.5745
 10
26.77
 20
28.6145
 10
26.825
 20
28.6495
 10
26.883
 20
28.6795
 10
26.9435
 20
28.705
 10
27.006
 20
28.7245
 10
27.07
 20
28.7385
 10
27.1345
 20
28.747
 10
27.2
 20
28.75
 10
27.2655
 20
28.747
 10
27.33
 20
28.7385
 10
27.394
 20
28.7245
 10
27.4565
 20
28.705
 10
27.517
 20
28.6795
 10
27.575
 20
28.6495
 10
27.63
 20
28.6145
 10
27.682
 20
28.5745
 10
27.7305
 20
28.5305
 10
27.7745
 20
28.482
 10
27.8145
 20
28.43
 10
27.8495
 20
28.375
 10
27.8795
 20
28.317
 10
27.905
 20
28.2565
 10
27.9245
 20
28.194
 10
27.9385
 20
28.13
  0
LWPOLYLINE
  5
56
330
1F
100
AcDbEntity
  8
Signal_01
100
AcDbPolyline
 90
       16
 70
     1
 43
0.0
 10
30.6
 20
14.4255
 10
30.6
 20
14.8005
 10
30.7
 20
14.8005
 10
30.7
 20
15.2
 10
29.4
 20
15.2
 10
29.4
 20
16.2
 10
30.6
 20
16.2
 10
30.6
 20
15.8
 10
31.1
 20
15.8
 10
31.1
 20
16.2
 10
32.3
 20
16.2
 10
32.3
 20
15.2
 10
31.0
 20
15.2
 10
31.0
 20
14.8005
 10
31.1
 20
14.8005
 10
31.1
 20
14.4255
  0
LWPOLYLINE
  5
57
330
1F
100
AcDbEntity
  8
Signal_01
100
AcDbPolyline
 90
       16
 70
     1
 43
0.0
 10
31.0
 20
13.2
 10
32.3
 20
13.2
 10
32.3
 20
12.2
 10
31.1
 20
12.2
 10
31.1
 20
12.6
 10
30.6
 20
12.6
 10
30.6
 20
12.2
 10
29.4
 20
12.2
 10
29.4
 20
13.2
 10
30.7
 20
13.2
 10
30.7
 20
13.6005
 10
30.6
 20
13.6005
 10
30.6
 20
13.9755
 10
31.1
 20
13.9755
 10
31.1
 20
13.6005
 10
31.0
 20
13.6005
  0
LWPOLYLINE
  5
58
330
1F
100
AcDbEntity
  8
Signal_01
100
AcDbPolyline
 90
        4
 70
     1
 43
0.0
 10
35.7
 20
13.7
 10
35.7
 20
14.7
 10
36.9
 20
14.7
 10
36.9
 20
13.7
  0
LWPOLYLINE
  5
59
330
1F
100
AcDbEntity
  8
Signal_01
100
AcDbPolyline
 90
       12
 70
     1
 43
0.0
 10
37.15
 20
12.45
 10
37.15
 20
12.55
 10
36.9
 20
12.55
 10
36.9
 20
12.2
 10
35.7
 20
12.2
 10
35.7
 20
13.2
 10
36.9
 20
13.2
 10
36.9
 20
12.85
 10
37.15
 20
12.85
 10
37.15
 20
12.95
 10
37.525
 20
12.95
 10
37.525
 20
12.45
  0
LWPOLYLINE
  5
5A
330
1F
100
AcDbEntity
  8
Signal_01
100
AcDbPolyline
 90
       12
 70
     1
 43
0.0
 10
37.15
 20
15.45
 10
37.15
 20
15.55
 10
36.9
 20
15.55
 10
36.9
 20
15.2
 10
35.7
 20
15.2
 10
35.7
 20
16.2
 10
36.9
 20
16.2
 10
36.9
 20
15.85
 10
37.15
 20
15.85
 10
37.15
 20
15.95
 10
37.525
 20
15.95
 10
37.525
 20
15.45
  0
LWPOLYLINE
  5
5B
330
1F
100
AcDbEntity
  8
Signal_01
100
AcDbPolyline
 90
       12
 70
     1
 43
0.0
 10
38.65
 20
15.45
 10
38.65
 20
15.55
 10
38.35
 20
15.55
 10
38.35
 20
15.45
 10
37.975
 20
15.45
 10
37.975
 20
15.95
 10
38.35
 20
15.95
 10
38.35
 20
15.85
 10
38.65
 20
15.85
 10
38.65
 20
15.95
 10
39.025
 20
15.95
 10
39.025
 20
15.45
  0
LWPOLYLINE
  5
5C
330
1F
100
AcDbEntity
  8
Signal_01
100
AcDbPolyline
 90
       22
 70
     1
 43
0.0
 10
40.3
 20
16.9
 10
40.3
 20
17.2
 10
28.49
 20
17.2
 10
28.49
 20
17.35
 10
28.223
 20
17.35
 10
28.223
 20
17.85
 10
28.49
 20
17.85
 10
28.49
 20
18.445
 10
28.224
 20
18.445
 10
28.224
 20
18.945
 10
28.49
 20
18.945
 10
28.49
 20
29.3
 10
25.91
 20
29.3
 10
25.91
 20
24.95
 10
16.8
 20
24.95
 10
16.8
 20
19.45
 10
15.036
 20
19.45
 10
12.486
 20
16.9
 10
-8.700000000000001
 20
16.9
 10
-8.700000000000001
 20
35.7
 10
49.3
 20
35.7
 10
49.3
 20
16.9
  0
LWPOLYLINE
  5
5D
330
1F
100
AcDbEntity
  8
Signal_01
100
AcDbPolyline
 90
       41
 70
     1
 43
0.0
 10
49.3
 20
-4.3
 10
49.3
 20
14.5
 10
38.9975
 20
14.5
 10
38.9975
 20
13.547
 10
38.55
 20
13.1
 10
38.55
 20
12.85
 10
38.35
 20
12.85
 10
38.35
 20
12.55
 10
38.55
 20
12.55
 10
38.55
 20
12.3
 10
38.25
 20
12.3
 10
38.25
 20
12.45
 10
38.35
 20
12.45
 10
38.35
 20
12.55
 10
38.35
 20
12.85
 10
38.35
 20
12.95
 10
37.975
 20
12.95
 10
37.975
 20
12.45
 10
38.0495
 20
12.45
 10
38.05
 20
12.1
 10
38.05
 20
11.2
 10
27.7065
 20
11.2
 10
25.3065
 20
8.8
 10
23.0255
 20
8.8
 10
23.0255
 20
7.415
 10
17.7255
 20
7.415
 10
17.7255
 20
8.8
 10
15.2995
 20
8.8
 10
12.8995
 20
11.2
 10
3.3
 20
11.2
 10
3.3
 20
12.4
 10
3.7
 20
12.4
 10
3.7
 20
12.2
 10
4.9
 20
12.2
 10
4.9
 20
13.2
 10
3.7
 20
13.2
 10
3.7
 20
13.0
 10
3.3
 20
13.0
 10
3.3
 20
14.5
 10
-8.700000000000001
 20
14.5
 10
-8.700000000000001
 20
-4.3
  0
LWPOLYLINE
  5
5E
330
1F
100
AcDbEntity
  8
Signal_01
100
AcDbPolyline
 90
       12
 70
     1
 43
0.0
 10
40.2625
 20
16.1
 10
49.3
 20
16.1
 10
49.3
 20
15.3
 10
40.2625
 20
15.3
 10
40.0125
 20
15.55
 10
39.85
 20
15.55
 10
39.85
 20
15.45
 10
39.475
 20
15.45
 10
39.475
 20
15.95
 10
39.85
 20
15.95
 10
39.85
 20
15.85
 10
40.0125
 20
15.85
  0
LWPOLYLINE
  5
5F
330
1F
100
AcDbEntity
  8
Signal_02
100
AcDbPolyline
 90
       12
 70
     1
 43
0.0
 10
49.3
 20
-4.3
 10
49.3
 20
35.7
 10
28.49
 20
35.7
 10
25.91
 20
35.7
 10
25.91
 20
29.3
 10
28.49
 20
29.3
 10
28.49
 20
26.8
 10
25.91
 20
26.8
 10
25.91
 20
29.3
 10
25.91
 20
35.7
 10
-8.700000000000001
 20
35.7
 10
-8.700000000000001
 20
-4.3
  0
CIRCLE
  5
61
330
1F
100
AcDbEntity
  8
Signal_02
100
AcDbCircle
 10
27.2
 20
28.0
 30
0.0
 40
0.75
  0
LWPOLYLINE
  5
62
330
1F
100
AcDbEntity
  8
SR_Top
100
AcDbPolyline
 90
        4
 70
     1
 43
0.0
 10
-8.8
 20
8.2
 10
-8.8
 20
23.7
 10
-0.1
 20
23.7
 10
-0.1
 20
8.2
  0
LWPOLYLINE
  5
64
330
1F
100
AcDbEntity
  8
SR_Top
100
AcDbPolyline
 90
        4
 70
     1
 43
0.0
 10
0.3735
 20
15.45
 10
0.3735
 20
15.95
 10
0.7485
 20
15.95
 10
0.7485
 20
15.45
  0
LWPOLYLINE
  5
65
330
1F
100
AcDbEntity
  8
SR_Top
100
AcDbPolyline
 90
        4
 70
     1
 43
0.0
 10
1.1985
 20
15.45
 10
1.1985
 20
15.95
 10
1.5735
 20
15.95
 10
1.5735
 20
15.45
  0
LWPOLYLINE
  5
66
330
1F
100
AcDbEntity
  8
SR_Top
100
AcDbPolyline
 90
        4
 70
     1
 43
0.0
 10
1.9735
 20
15.45
 10
1.9735
 20
15.95
 10
2.3485
 20
15.95
 10
2.3485
 20
15.45
  0
LWPOLYLINE
  5
67
330
1F
100
AcDbEntity
  8
SR_Top
100
AcDbPolyline
 90
        4
 70
     1
 43
0.0
 10
2.7985
 20
15.45
 10
2.7985
 20
15.95
 10
3.1735
 20
15.95
 10
3.1735
 20
15.45
  0
LWPOLYLINE
  5
68
330
1F
100
AcDbEntity
  8
SR_Top
100
AcDbPolyline
 90
        4
 70
     1
 43
0.0
 10
3.6
 20
12.1
 10
3.6
 20
13.3
 10
5.0
 20
13.3
 10
5.0
 20
12.1
  0
LWPOLYLINE
  5
69
330
1F
100
AcDbEntity
  8
SR_Top
100
AcDbPolyline
 90
        4
 70
     1
 43
0.0
 10
3.6
 20
13.6
 10
3.6
 20
14.8
 10
5.0
 20
14.8
 10
5.0
 20
13.6
  0
LWPOLYLINE
  5
6A
330
1F
100
AcDbEntity
  8
SR_Top
100
AcDbPolyline
 90
        4
 70
     1
 43
0.0
 10
3.6
 20
15.1
 10
3.6
 20
16.3
 10
5.0
 20
16.3
 10
5.0
 20
15.1
  0
LWPOLYLINE
  5
6B
330
1F
100
AcDbEntity
  8
SR_Top
100
AcDbPolyline
 90
        4
 70
     1
 43
0.0
 10
8.2
 20
12.1
 10
8.2
 20
13.3
 10
9.6
 20
13.3
 10
9.6
 20
12.1
  0
LWPOLYLINE
  5
6C
330
1F
100
AcDbEntity
  8
SR_Top
100
AcDbPolyline
 90
        4
 70
     1
 43
0.0
 10
8.2
 20
15.1
 10
8.2
 20
16.3
 10
9.6
 20
16.3
 10
9.6
 20
15.1
  0
LWPOLYLINE
  5
6D
330
1F
100
AcDbEntity
  8
SR_Top
100
AcDbPolyline
 90
        4
 70
     1
 43
0.0
 10
9.435
 20
13.535
 10
9.435
 20
14.04
 10
10.065
 20
14.04
 10
10.065
 20
13.535
  0
LWPOLYLINE
  5
6E
330
1F
100
AcDbEntity
  8
SR_Top
100
AcDbPolyline
 90
        4
 70
     1
 43
0.0
 10
9.435
 20
14.36
 10
9.435
 20
14.865
 10
10.065
 20
14.865
 10
10.065
 20
14.36
  0
LWPOLYLINE
  5
6F
330
1F
100
AcDbEntity
  8
SR_Top
100
AcDbPolyline
 90
        4
 70
     1
 43
0.0
 10
9.9
 20
12.1
 10
9.9
 20
13.3
 10
11.3
 20
13.3
 10
11.3
 20
12.1
  0
LWPOLYLINE
  5
70
330
1F
100
AcDbEntity
  8
SR_Top
100
AcDbPolyline
 90
        4
 70
     1
 43
0.0
 10
9.9
 20
15.1
 10
9.9
 20
16.3
 10
11.3
 20
16.3
 10
11.3
 20
15.1
  0
LWPOLYLINE
  5
71
330
1F
100
AcDbEntity
  8
SR_Top
100
AcDbPolyline
 90
        4
 70
     1
 43
0.0
 10
14.5
 20
12.1
 10
14.5
 20
13.3
 10
15.9
 20
13.3
 10
15.9
 20
12.1
  0
LWPOLYLINE
  5
72
330
1F
100
AcDbEntity
  8
SR_Top
100
AcDbPolyline
 90
        4
 70
     1
 43
0.0
 10
14.5
 20
13.6
 10
14.5
 20
14.8
 10
15.9
 20
14.8
 10
15.9
 20
13.6
  0
LWPOLYLINE
  5
73
330
1F
100
AcDbEntity
  8
SR_Top
100
AcDbPolyline
 90
        4
 70
     1
 43
0.0
 10
14.5
 20
15.1
 10
14.5
 20
16.3
 10
15.9
 20
16.3
 10
15.9
 20
15.1
  0
LWPOLYLINE
  5
74
330
1F
100
AcDbEntity
  8
SR_Top
100
AcDbPolyline
 90
        4
 70
     1
 43
0.0
 10
16.5345
 20
18.185
 10
16.5345
 20
18.815
 10
17.0395
 20
18.815
 10
17.0395
 20
18.185
  0
LWPOLYLINE
  5
75
330
1F
100
AcDbEntity
  8
SR_Top
100
AcDbPolyline
 90
        4
 70
     1
 43
0.0
 10
16.5355
 20
9.685
 10
16.5355
 20
10.315
 10
17.0405
 20
10.315
 10
17.0405
 20
9.685
  0
LWPOLYLINE
  5
76
330
1F
100
AcDbEntity
  8
SR_Top
100
AcDbPolyline
 90
        4
 70
     1
 43
0.0
 10
17.3595
 20
18.185
 10
17.3595
 20
18.815
 10
17.8645
 20
18.815
 10
17.8645
 20
18.185
  0
LWPOLYLINE
  5
77
330
1F
100
AcDbEntity
  8
SR_Top
100
AcDbPolyline
 90
        4
 70
     1
 43
0.0
 10
17.3605
 20
9.685
 10
17.3605
 20
10.315
 10
17.8655
 20
10.315
 10
17.8655
 20
9.685
  0
LWPOLYLINE
  5
78
330
1F
100
AcDbEntity
  8
SR_Top
100
AcDbPolyline
 90
        4
 70
     1
 43
0.0
 10
18.2255
 20
7.915
 10
18.2255
 20
8.290000000000001
 10
18.7255
 20
8.290000000000001
 10
18.7255
 20
7.915
  0
LWPOLYLINE
  5
79
330
1F
100
AcDbEntity
  8
SR_Top
100
AcDbPolyline
 90
        4
 70
     1
 43
0.0
 10
18.2255
 20
8.74
 10
18.2255
 20
9.115
 10
18.7255
 20
9.115
 10
18.7255
 20
8.74
  0
LWPOLYLINE
  5
7A
330
1F
100
AcDbEntity
  8
SR_Top
100
AcDbPolyline
 90
        4
 70
     1
 43
0.0
 10
18.2255
 20
16.415
 10
18.2255
 20
16.79
 10
18.7255
 20
16.79
 10
18.7255
 20
16.415
  0
LWPOLYLINE
  5
7B
330
1F
100
AcDbEntity
  8
SR_Top
100
AcDbPolyline
 90
        4
 70
     1
 43
0.0
 10
18.2255
 20
17.24
 10
18.2255
 20
17.615
 10
18.7255
 20
17.615
 10
18.7255
 20
17.24
  0
LWPOLYLINE
  5
7C
330
1F
100
AcDbEntity
  8
SR_Top
100
AcDbPolyline
 90
        4
 70
     1
 43
0.0
 10
18.4755
 20
9.365
 10
18.4755
 20
10.565
 10
19.2755
 20
10.565
 10
19.2755
 20
9.365
  0
LWPOLYLINE
  5
7D
330
1F
100
AcDbEntity
  8
SR_Top
100
AcDbPolyline
 90
        4
 70
     1
 43
0.0
 10
18.4755
 20
17.865
 10
18.4755
 20
19.065
 10
19.2755
 20
19.065
 10
19.2755
 20
17.865
  0
LWPOLYLINE
  5
7E
330
1F
100
AcDbEntity
  8
SR_Top
100
AcDbPolyline
 90
        4
 70
     1
 43
0.0
 10
19.0255
 20
7.915
 10
19.0255
 20
8.415000000000001
 10
19.4005
 20
8.415000000000001
 10
19.4005
 20
7.915
  0
LWPOLYLINE
  5
7F
330
1F
100
AcDbEntity
  8
SR_Top
100
AcDbPolyline
 90
        4
 70
     1
 43
0.0
 10
19.0255
 20
16.415
 10
19.0255
 20
16.915
 10
19.4005
 20
16.915
 10
19.4005
 20
16.415
  0
LWPOLYLINE
  5
80
330
1F
100
AcDbEntity
  8
SR_Top
100
AcDbPolyline
 90
        4
 70
     1
 43
0.0
 10
19.8505
 20
7.915
 10
19.8505
 20
8.415000000000001
 10
20.2255
 20
8.415000000000001
 10
20.2255
 20
7.915
  0
LWPOLYLINE
  5
81
330
1F
100
AcDbEntity
  8
SR_Top
100
AcDbPolyline
 90
        4
 70
     1
 43
0.0
 10
19.8505
 20
16.415
 10
19.8505
 20
16.915
 10
20.2255
 20
16.915
 10
20.2255
 20
16.415
  0
LWPOLYLINE
  5
82
330
1F
100
AcDbEntity
  8
SR_Top
100
AcDbPolyline
 90
        8
 70
     1
 43
0.0
 10
19.9755
 20
9.365
 10
19.9755
 20
10.85
 10
19.2755
 20
10.85
 10
19.2755
 20
14.165
 10
21.4755
 20
14.165
 10
21.4755
 20
10.85
 10
20.7755
 20
10.85
 10
20.7755
 20
9.365
  0
LWPOLYLINE
  5
83
330
1F
100
AcDbEntity
  8
SR_Top
100
AcDbPolyline
 90
        8
 70
     1
 43
0.0
 10
19.9755
 20
17.865
 10
19.9755
 20
19.35
 10
19.2755
 20
19.35
 10
19.2755
 20
22.665
 10
21.4755
 20
22.665
 10
21.4755
 20
19.35
 10
20.7755
 20
19.35
 10
20.7755
 20
17.865
  0
LWPOLYLINE
  5
84
330
1F
100
AcDbEntity
  8
SR_Top
100
AcDbPolyline
 90
        4
 70
     1
 43
0.0
 10
20.5255
 20
7.915
 10
20.5255
 20
8.415000000000001
 10
20.9005
 20
8.415000000000001
 10
20.9005
 20
7.915
  0
LWPOLYLINE
  5
85
330
1F
100
AcDbEntity
  8
SR_Top
100
AcDbPolyline
 90
        4
 70
     1
 43
0.0
 10
20.5255
 20
16.415
 10
20.5255
 20
16.915
 10
20.9005
 20
16.915
 10
20.9005
 20
16.415
  0
LWPOLYLINE
  5
86
330
1F
100
AcDbEntity
  8
SR_Top
100
AcDbPolyline
 90
        4
 70
     1
 43
0.0
 10
21.3505
 20
7.915
 10
21.3505
 20
8.415000000000001
 10
21.7255
 20
8.415000000000001
 10
21.7255
 20
7.915
  0
LWPOLYLINE
  5
87
330
1F
100
AcDbEntity
  8
SR_Top
100
AcDbPolyline
 90
        4
 70
     1
 43
0.0
 10
21.3505
 20
16.415
 10
21.3505
 20
16.915
 10
21.7255
 20
16.915
 10
21.7255
 20
16.415
  0
LWPOLYLINE
  5
88
330
1F
100
AcDbEntity
  8
SR_Top
100
AcDbPolyline
 90
        4
 70
     1
 43
0.0
 10
21.4755
 20
9.365
 10
21.4755
 20
10.565
 10
22.2755
 20
10.565
 10
22.2755
 20
9.365
  0
LWPOLYLINE
  5
89
330
1F
100
AcDbEntity
  8
SR_Top
100
AcDbPolyline
 90
        4
 70
     1
 43
0.0
 10
21.4755
 20
17.865
 10
21.4755
 20
19.065
 10
22.2755
 20
19.065
 10
22.2755
 20
17.865
  0
LWPOLYLINE
  5
8A
330
1F
100
AcDbEntity
  8
SR_Top
100
AcDbPolyline
 90
        4
 70
     1
 43
0.0
 10
22.0255
 20
7.915
 10
22.0255
 20
8.290000000000001
 10
22.5255
 20
8.290000000000001
 10
22.5255
 20
7.915
  0
LWPOLYLINE
  5
8B
330
1F
100
AcDbEntity
  8
SR_Top
100
AcDbPolyline
 90
        4
 70
     1
 43
0.0
 10
22.0255
 20
8.74
 10
22.0255
 20
9.115
 10
22.5255
 20
9.115
 10
22.5255
 20
8.74
  0
LWPOLYLINE
  5
8C
330
1F
100
AcDbEntity
  8
SR_Top
100
AcDbPolyline
 90
        4
 70
     1
 43
0.0
 10
22.0255
 20
16.415
 10
22.0255
 20
16.79
 10
22.5255
 20
16.79
 10
22.5255
 20
16.415
  0
LWPOLYLINE
  5
8D
330
1F
100
AcDbEntity
  8
SR_Top
100
AcDbPolyline
 90
        4
 70
     1
 43
0.0
 10
22.0255
 20
17.24
 10
22.0255
 20
17.615
 10
22.5255
 20
17.615
 10
22.5255
 20
17.24
  0
LWPOLYLINE
  5
8E
330
1F
100
AcDbEntity
  8
SR_Top
100
AcDbPolyline
 90
        4
 70
     1
 43
0.0
 10
23.3
 20
13.95
 10
23.3
 20
14.45
 10
23.675
 20
14.45
 10
23.675
 20
13.95
  0
LWPOLYLINE
  5
8F
330
1F
100
AcDbEntity
  8
SR_Top
100
AcDbPolyline
 90
        4
 70
     1
 43
0.0
 10
23.39
 20
26.734
 10
23.39
 20
29.334
 10
31.09
 20
29.334
 10
31.09
 20
26.734
  0
LWPOLYLINE
  5
90
330
1F
100
AcDbEntity
  8
SR_Top
100
AcDbPolyline
 90
        4
 70
     1
 43
0.0
 10
24.125
 20
13.95
 10
24.125
 20
14.45
 10
24.5
 20
14.45
 10
24.5
 20
13.95
  0
LWPOLYLINE
  5
91
330
1F
100
AcDbEntity
  8
SR_Top
100
AcDbPolyline
 90
        4
 70
     1
 43
0.0
 10
24.7
 20
12.1
 10
24.7
 20
13.3
 10
26.1
 20
13.3
 10
26.1
 20
12.1
  0
LWPOLYLINE
  5
92
330
1F
100
AcDbEntity
  8
SR_Top
100
AcDbPolyline
 90
        4
 70
     1
 43
0.0
 10
24.7
 20
13.6
 10
24.7
 20
14.8
 10
26.1
 20
14.8
 10
26.1
 20
13.6
  0
LWPOLYLINE
  5
93
330
1F
100
AcDbEntity
  8
SR_Top
100
AcDbPolyline
 90
        4
 70
     1
 43
0.0
 10
24.7
 20
15.1
 10
24.7
 20
16.3
 10
26.1
 20
16.3
 10
26.1
 20
15.1
  0
LWPOLYLINE
  5
94
330
1F
100
AcDbEntity
  8
SR_Top
100
AcDbPolyline
 90
        4
 70
     1
 43
0.0
 10
27.333
 20
17.285
 10
27.333
 20
17.915
 10
27.838
 20
17.915
 10
27.838
 20
17.285
  0
LWPOLYLINE
  5
95
330
1F
100
AcDbEntity
  8
SR_Top
100
AcDbPolyline
 90
        4
 70
     1
 43
0.0
 10
27.334
 20
18.38
 10
27.334
 20
19.01
 10
27.839
 20
19.01
 10
27.839
 20
18.38
  0
LWPOLYLINE
  5
96
330
1F
100
AcDbEntity
  8
SR_Top
100
AcDbPolyline
 90
        4
 70
     1
 43
0.0
 10
28.158
 20
17.285
 10
28.158
 20
17.915
 10
28.663
 20
17.915
 10
28.663
 20
17.285
  0
LWPOLYLINE
  5
97
330
1F
100
AcDbEntity
  8
SR_Top
100
AcDbPolyline
 90
        4
 70
     1
 43
0.0
 10
28.159
 20
18.38
 10
28.159
 20
19.01
 10
28.664
 20
19.01
 10
28.664
 20
18.38
  0
LWPOLYLINE
  5
98
330
1F
100
AcDbEntity
  8
SR_Top
100
AcDbPolyline
 90
        4
 70
     1
 43
0.0
 10
29.3
 20
12.1
 10
29.3
 20
13.3
 10
30.7
 20
13.3
 10
30.7
 20
12.1
  0
LWPOLYLINE
  5
99
330
1F
100
AcDbEntity
  8
SR_Top
100
AcDbPolyline
 90
        4
 70
     1
 43
0.0
 10
29.3
 20
15.1
 10
29.3
 20
16.3
 10
30.7
 20
16.3
 10
30.7
 20
15.1
  0
LWPOLYLINE
  5
9A
330
1F
100
AcDbEntity
  8
SR_Top
100
AcDbPolyline
 90
        4
 70
     1
 43
0.0
 10
30.535
 20
13.5355
 10
30.535
 20
14.0405
 10
31.165
 20
14.0405
 10
31.165
 20
13.5355
  0
LWPOLYLINE
  5
9B
330
1F
100
AcDbEntity
  8
SR_Top
100
AcDbPolyline
 90
        4
 70
     1
 43
0.0
 10
30.535
 20
14.3605
 10
30.535
 20
14.8655
 10
31.165
 20
14.8655
 10
31.165
 20
14.3605
  0
LWPOLYLINE
  5
9C
330
1F
100
AcDbEntity
  8
SR_Top
100
AcDbPolyline
 90
        4
 70
     1
 43
0.0
 10
31.0
 20
12.1
 10
31.0
 20
13.3
 10
32.4
 20
13.3
 10
32.4
 20
12.1
  0
LWPOLYLINE
  5
9D
330
1F
100
AcDbEntity
  8
SR_Top
100
AcDbPolyline
 90
        4
 70
     1
 43
0.0
 10
31.0
 20
15.1
 10
31.0
 20
16.3
 10
32.4
 20
16.3
 10
32.4
 20
15.1
  0
LWPOLYLINE
  5
9E
330
1F
100
AcDbEntity
  8
SR_Top
100
AcDbPolyline
 90
        4
 70
     1
 43
0.0
 10
35.6
 20
12.1
 10
35.6
 20
13.3
 10
37.0
 20
13.3
 10
37.0
 20
12.1
  0
LWPOLYLINE
  5
9F
330
1F
100
AcDbEntity
  8
SR_Top
100
AcDbPolyline
 90
        4
 70
     1
 43
0.0
 10
35.6
 20
13.6
 10
35.6
 20
14.8
 10
37.0
 20
14.8
 10
37.0
 20
13.6
  0
LWPOLYLINE
  5
A0
330
1F
100
AcDbEntity
  8
SR_Top
100
AcDbPolyline
 90
        4
 70
     1
 43
0.0
 10
35.6
 20
15.1
 10
35.6
 20
16.3
 10
36.95
 20
16.3
 10
36.95
 20
15.1
  0
LWPOLYLINE
  5
A1
330
1F
100
AcDbEntity
  8
SR_Top
100
AcDbPolyline
 90
        4
 70
     1
 43
0.0
 10
37.15
 20
12.45
 10
37.15
 20
12.95
 10
37.525
 20
12.95
 10
37.525
 20
12.45
  0
LWPOLYLINE
  5
A2
330
1F
100
AcDbEntity
  8
SR_Top
100
AcDbPolyline
 90
        4
 70
     1
 43
0.0
 10
37.15
 20
15.45
 10
37.15
 20
15.95
 10
37.525
 20
15.95
 10
37.525
 20
15.45
  0
LWPOLYLINE
  5
A3
330
1F
100
AcDbEntity
  8
SR_Top
100
AcDbPolyline
 90
        4
 70
     1
 43
0.0
 10
37.975
 20
12.45
 10
37.975
 20
12.95
 10
38.35
 20
12.95
 10
38.35
 20
12.45
  0
LWPOLYLINE
  5
A4
330
1F
100
AcDbEntity
  8
SR_Top
100
AcDbPolyline
 90
        4
 70
     1
 43
0.0
 10
37.975
 20
15.45
 10
37.975
 20
15.95
 10
38.35
 20
15.95
 10
38.35
 20
15.45
  0
LWPOLYLINE
  5
A5
330
1F
100
AcDbEntity
  8
SR_Top
100
AcDbPolyline
 90
        4
 70
     1
 43
0.0
 10
38.65
 20
15.45
 10
38.65
 20
15.95
 10
39.025
 20
15.95
 10
39.025
 20
15.45
  0
LWPOLYLINE
  5
A6
330
1F
100
AcDbEntity
  8
SR_Top
100
AcDbPolyline
 90
        4
 70
     1
 43
0.0
 10
39.475
 20
15.45
 10
39.475
 20
15.95
 10
39.85
 20
15.95
 10
39.85
 20
15.45
  0
LWPOLYLINE
  5
A7
330
1F
100
AcDbEntity
  8
SR_Top
100
AcDbPolyline
 90
        4
 70
     1
 43
0.0
 10
40.3
 20
8.2
 10
40.3
 20
23.8
 10
49.3
 20
23.8
 10
49.3
 20
8.2
  0
LWPOLYLINE
  5
A8
330
1F
100
AcDbEntity
  8
SP_Top
100
AcDbPolyline
 90
        4
 70
     1
 43
0.0
 10
0.3635
 20
15.475
 10
0.3635
 20
15.925
 10
0.7585000000000001
 20
15.925
 10
0.7585000000000001
 20
15.475
  0
LWPOLYLINE
  5
AA
330
1F
100
AcDbEntity
  8
SP_Top
100
AcDbPolyline
 90
        4
 70
     1
 43
0.0
 10
1.1885
 20
15.475
 10
1.1885
 20
15.925
 10
1.5835
 20
15.925
 10
1.5835
 20
15.475
  0
LWPOLYLINE
  5
AB
330
1F
100
AcDbEntity
  8
SP_Top
100
AcDbPolyline
 90
        4
 70
     1
 43
0.0
 10
1.9635
 20
15.475
 10
1.9635
 20
15.925
 10
2.3585
 20
15.925
 10
2.3585
 20
15.475
  0
LWPOLYLINE
  5
AC
330
1F
100
AcDbEntity
  8
SP_Top
100
AcDbPolyline
 90
        4
 70
     1
 43
0.0
 10
2.7885
 20
15.475
 10
2.7885
 20
15.925
 10
3.1835
 20
15.925
 10
3.1835
 20
15.475
  0
LWPOLYLINE
  5
AD
330
1F
100
AcDbEntity
  8
SP_Top
100
AcDbPolyline
 90
        4
 70
     1
 43
0.0
 10
3.9495
 20
12.4
 10
3.9495
 20
13.0
 10
4.6495
 20
13.0
 10
4.6495
 20
12.4
  0
LWPOLYLINE
  5
AE
330
1F
100
AcDbEntity
  8
SP_Top
100
AcDbPolyline
 90
        4
 70
     1
 43
0.0
 10
3.9495
 20
13.9
 10
3.9495
 20
14.5
 10
4.6495
 20
14.5
 10
4.6495
 20
13.9
  0
LWPOLYLINE
  5
AF
330
1F
100
AcDbEntity
  8
SP_Top
100
AcDbPolyline
 90
        4
 70
     1
 43
0.0
 10
3.9495
 20
15.4
 10
3.9495
 20
16.0
 10
4.6495
 20
16.0
 10
4.6495
 20
15.4
  0
LWPOLYLINE
  5
B0
330
1F
100
AcDbEntity
  8
SP_Top
100
AcDbPolyline
 90
        4
 70
     1
 43
0.0
 10
8.5495
 20
12.4
 10
8.5495
 20
13.0
 10
9.2495
 20
13.0
 10
9.2495
 20
12.4
  0
LWPOLYLINE
  5
B1
330
1F
100
AcDbEntity
  8
SP_Top
100
AcDbPolyline
 90
        4
 70
     1
 43
0.0
 10
8.5495
 20
15.4
 10
8.5495
 20
16.0
 10
9.2495
 20
16.0
 10
9.2495
 20
15.4
  0
LWPOLYLINE
  5
B2
330
1F
100
AcDbEntity
  8
SP_Top
100
AcDbPolyline
 90
        4
 70
     1
 43
0.0
 10
9.525
 20
13.59
 10
9.525
 20
13.985
 10
9.975
 20
13.985
 10
9.975
 20
13.59
  0
LWPOLYLINE
  5
B3
330
1F
100
AcDbEntity
  8
SP_Top
100
AcDbPolyline
 90
        4
 70
     1
 43
0.0
 10
9.525
 20
14.415
 10
9.525
 20
14.81
 10
9.975
 20
14.81
 10
9.975
 20
14.415
  0
LWPOLYLINE
  5
B4
330
1F
100
AcDbEntity
  8
SP_Top
100
AcDbPolyline
 90
        4
 70
     1
 43
0.0
 10
10.2505
 20
12.3995
 10
10.2505
 20
13.0
 10
10.9505
 20
13.0
 10
10.9505
 20
12.3995
  0
LWPOLYLINE
  5
B5
330
1F
100
AcDbEntity
  8
SP_Top
100
AcDbPolyline
 90
        4
 70
     1
 43
0.0
 10
10.2505
 20
15.4
 10
10.2505
 20
16.0005
 10
10.9505
 20
16.0005
 10
10.9505
 20
15.4
  0
LWPOLYLINE
  5
B6
330
1F
100
AcDbEntity
  8
SP_Top
100
AcDbPolyline
 90
        4
 70
     1
 43
0.0
 10
14.8505
 20
13.9
 10
14.8505
 20
14.5
 10
15.5505
 20
14.5
 10
15.5505
 20
13.9
  0
LWPOLYLINE
  5
B7
330
1F
100
AcDbEntity
  8
SP_Top
100
AcDbPolyline
 90
        4
 70
     1
 43
0.0
 10
14.85
 20
15.4
 10
14.8505
 20
16.0
 10
15.5505
 20
16.0
 10
15.55
 20
15.4
  0
LWPOLYLINE
  5
B8
330
1F
100
AcDbEntity
  8
SP_Top
100
AcDbPolyline
 90
        4
 70
     1
 43
0.0
 10
15.55
 20
13.0
 10
15.5505
 20
12.4
 10
14.8505
 20
12.4
 10
14.85
 20
13.0
  0
LWPOLYLINE
  5
B9
330
1F
100
AcDbEntity
  8
SP_Top
100
AcDbPolyline
 90
        4
 70
     1
 43
0.0
 10
16.5895
 20
18.275
 10
16.5895
 20
18.725
 10
16.9845
 20
18.725
 10
16.9845
 20
18.275
  0
LWPOLYLINE
  5
BA
330
1F
100
AcDbEntity
  8
SP_Top
100
AcDbPolyline
 90
        4
 70
     1
 43
0.0
 10
16.5905
 20
9.775
 10
16.5905
 20
10.225
 10
16.9855
 20
10.225
 10
16.9855
 20
9.775
  0
LWPOLYLINE
  5
BB
330
1F
100
AcDbEntity
  8
SP_Top
100
AcDbPolyline
 90
        4
 70
     1
 43
0.0
 10
17.4145
 20
18.275
 10
17.4145
 20
18.725
 10
17.8095
 20
18.725
 10
17.8095
 20
18.275
  0
LWPOLYLINE
  5
BC
330
1F
100
AcDbEntity
  8
SP_Top
100
AcDbPolyline
 90
        4
 70
     1
 43
0.0
 10
17.4155
 20
9.775
 10
17.4155
 20
10.225
 10
17.8105
 20
10.225
 10
17.8105
 20
9.775
  0
LWPOLYLINE
  5
BD
330
1F
100
AcDbEntity
  8
SP_Top
100
AcDbPolyline
 90
        4
 70
     1
 43
0.0
 10
18.2505
 20
7.905
 10
18.2505
 20
8.3
 10
18.7005
 20
8.3
 10
18.7005
 20
7.905
  0
LWPOLYLINE
  5
BE
330
1F
100
AcDbEntity
  8
SP_Top
100
AcDbPolyline
 90
        4
 70
     1
 43
0.0
 10
18.2505
 20
8.73
 10
18.2505
 20
9.125
 10
18.7005
 20
9.125
 10
18.7005
 20
8.73
  0
LWPOLYLINE
  5
BF
330
1F
100
AcDbEntity
  8
SP_Top
100
AcDbPolyline
 90
        4
 70
     1
 43
0.0
 10
18.2505
 20
16.405
 10
18.2505
 20
16.8
 10
18.7005
 20
16.8
 10
18.7005
 20
16.405
  0
LWPOLYLINE
  5
C0
330
1F
100
AcDbEntity
  8
SP_Top
100
AcDbPolyline
 90
        4
 70
     1
 43
0.0
 10
18.2505
 20
17.23
 10
18.2505
 20
17.625
 10
18.7005
 20
17.625
 10
18.7005
 20
17.23
  0
LWPOLYLINE
  5
C1
330
1F
100
AcDbEntity
  8
SP_Top
100
AcDbPolyline
 90
        4
 70
     1
 43
0.0
 10
18.65
 20
9.55
 10
18.65
 20
10.35
 10
19.1
 20
10.35
 10
19.1
 20
9.55
  0
LWPOLYLINE
  5
C2
330
1F
100
AcDbEntity
  8
SP_Top
100
AcDbPolyline
 90
        4
 70
     1
 43
0.0
 10
18.65
 20
18.05
 10
18.65
 20
18.85
 10
19.1
 20
18.85
 10
19.1
 20
18.05
  0
LWPOLYLINE
  5
C3
330
1F
100
AcDbEntity
  8
SP_Top
100
AcDbPolyline
 90
        4
 70
     1
 43
0.0
 10
19.0155
 20
7.94
 10
19.0155
 20
8.39
 10
19.4105
 20
8.39
 10
19.4105
 20
7.94
  0
LWPOLYLINE
  5
C4
330
1F
100
AcDbEntity
  8
SP_Top
100
AcDbPolyline
 90
        4
 70
     1
 43
0.0
 10
19.0155
 20
16.44
 10
19.0155
 20
16.89
 10
19.4105
 20
16.89
 10
19.4105
 20
16.44
  0
LWPOLYLINE
  5
C5
330
1F
100
AcDbEntity
  8
SP_Top
100
AcDbPolyline
 90
        4
 70
     1
 43
0.0
 10
19.493
 20
11.315
 10
19.493
 20
13.8
 10
21.3
 20
13.8
 10
21.3
 20
11.315
  0
LWPOLYLINE
  5
C6
330
1F
100
AcDbEntity
  8
SP_Top
100
AcDbPolyline
 90
        4
 70
     1
 43
0.0
 10
19.493
 20
19.815
 10
19.493
 20
22.3
 10
21.3
 20
22.3
 10
21.3
 20
19.815
  0
LWPOLYLINE
  5
C7
330
1F
100
AcDbEntity
  8
SP_Top
100
AcDbPolyline
 90
        4
 70
     1
 43
0.0
 10
19.8405
 20
7.94
 10
19.8405
 20
8.39
 10
20.2355
 20
8.39
 10
20.2355
 20
7.94
  0
LWPOLYLINE
  5
C8
330
1F
100
AcDbEntity
  8
SP_Top
100
AcDbPolyline
 90
        4
 70
     1
 43
0.0
 10
19.8405
 20
16.44
 10
19.8405
 20
16.89
 10
20.2355
 20
16.89
 10
20.2355
 20
16.44
  0
LWPOLYLINE
  5
C9
330
1F
100
AcDbEntity
  8
SP_Top
100
AcDbPolyline
 90
        4
 70
     1
 43
0.0
 10
20.173
 20
9.58
 10
20.173
 20
10.95
 10
20.6
 20
10.95
 10
20.6
 20
9.58
  0
LWPOLYLINE
  5
CA
330
1F
100
AcDbEntity
  8
SP_Top
100
AcDbPolyline
 90
        4
 70
     1
 43
0.0
 10
20.173
 20
18.08
 10
20.173
 20
19.45
 10
20.6
 20
19.45
 10
20.6
 20
18.08
  0
LWPOLYLINE
  5
CB
330
1F
100
AcDbEntity
  8
SP_Top
100
AcDbPolyline
 90
        4
 70
     1
 43
0.0
 10
20.5155
 20
7.94
 10
20.5155
 20
8.39
 10
20.9105
 20
8.39
 10
20.9105
 20
7.94
  0
LWPOLYLINE
  5
CC
330
1F
100
AcDbEntity
  8
SP_Top
100
AcDbPolyline
 90
        4
 70
     1
 43
0.0
 10
20.5155
 20
16.44
 10
20.5155
 20
16.89
 10
20.9105
 20
16.89
 10
20.9105
 20
16.44
  0
LWPOLYLINE
  5
CD
330
1F
100
AcDbEntity
  8
SP_Top
100
AcDbPolyline
 90
        4
 70
     1
 43
0.0
 10
21.3405
 20
7.94
 10
21.3405
 20
8.39
 10
21.7355
 20
8.39
 10
21.7355
 20
7.94
  0
LWPOLYLINE
  5
CE
330
1F
100
AcDbEntity
  8
SP_Top
100
AcDbPolyline
 90
        4
 70
     1
 43
0.0
 10
21.3405
 20
16.44
 10
21.3405
 20
16.89
 10
21.7355
 20
16.89
 10
21.7355
 20
16.44
  0
LWPOLYLINE
  5
CF
330
1F
100
AcDbEntity
  8
SP_Top
100
AcDbPolyline
 90
        4
 70
     1
 43
0.0
 10
21.65
 20
9.55
 10
21.65
 20
10.35
 10
22.1
 20
10.35
 10
22.1
 20
9.55
  0
LWPOLYLINE
  5
D0
330
1F
100
AcDbEntity
  8
SP_Top
100
AcDbPolyline
 90
        4
 70
     1
 43
0.0
 10
21.65
 20
18.05
 10
21.65
 20
18.85
 10
22.1
 20
18.85
 10
22.1
 20
18.05
  0
LWPOLYLINE
  5
D1
330
1F
100
AcDbEntity
  8
SP_Top
100
AcDbPolyline
 90
        4
 70
     1
 43
0.0
 10
22.0505
 20
7.905
 10
22.0505
 20
8.3
 10
22.5005
 20
8.3
 10
22.5005
 20
7.905
  0
LWPOLYLINE
  5
D2
330
1F
100
AcDbEntity
  8
SP_Top
100
AcDbPolyline
 90
        4
 70
     1
 43
0.0
 10
22.0505
 20
8.73
 10
22.0505
 20
9.125
 10
22.5005
 20
9.125
 10
22.5005
 20
8.73
  0
LWPOLYLINE
  5
D3
330
1F
100
AcDbEntity
  8
SP_Top
100
AcDbPolyline
 90
        4
 70
     1
 43
0.0
 10
22.0505
 20
16.405
 10
22.0505
 20
16.8
 10
22.5005
 20
16.8
 10
22.5005
 20
16.405
  0
LWPOLYLINE
  5
D4
330
1F
100
AcDbEntity
  8
SP_Top
100
AcDbPolyline
 90
        4
 70
     1
 43
0.0
 10
22.0505
 20
17.23
 10
22.0505
 20
17.625
 10
22.5005
 20
17.625
 10
22.5005
 20
17.23
  0
LWPOLYLINE
  5
D5
330
1F
100
AcDbEntity
  8
SP_Top
100
AcDbPolyline
 90
        4
 70
     1
 43
0.0
 10
23.29
 20
13.975
 10
23.29
 20
14.425
 10
23.685
 20
14.425
 10
23.685
 20
13.975
  0
LWPOLYLINE
  5
D6
330
1F
100
AcDbEntity
  8
SP_Top
100
AcDbPolyline
 90
        4
 70
     1
 43
0.0
 10
24.115
 20
13.975
 10
24.115
 20
14.425
 10
24.51
 20
14.425
 10
24.51
 20
13.975
  0
LWPOLYLINE
  5
D7
330
1F
100
AcDbEntity
  8
SP_Top
100
AcDbPolyline
 90
        4
 70
     1
 43
0.0
 10
25.0495
 20
12.4
 10
25.0495
 20
13.0
 10
25.7495
 20
13.0
 10
25.7495
 20
12.4
  0
LWPOLYLINE
  5
D8
330
1F
100
AcDbEntity
  8
SP_Top
100
AcDbPolyline
 90
        4
 70
     1
 43
0.0
 10
25.0495
 20
13.9
 10
25.0495
 20
14.5
 10
25.7495
 20
14.5
 10
25.7495
 20
13.9
  0
LWPOLYLINE
  5
D9
330
1F
100
AcDbEntity
  8
SP_Top
100
AcDbPolyline
 90
        4
 70
     1
 43
0.0
 10
25.0495
 20
15.4
 10
25.0495
 20
16.0
 10
25.7495
 20
16.0
 10
25.7495
 20
15.4
  0
LWPOLYLINE
  5
DA
330
1F
100
AcDbEntity
  8
SP_Top
100
AcDbPolyline
 90
        4
 70
     1
 43
0.0
 10
27.388
 20
17.375
 10
27.388
 20
17.825
 10
27.783
 20
17.825
 10
27.783
 20
17.375
  0
LWPOLYLINE
  5
DB
330
1F
100
AcDbEntity
  8
SP_Top
100
AcDbPolyline
 90
        4
 70
     1
 43
0.0
 10
27.389
 20
18.47
 10
27.389
 20
18.92
 10
27.784
 20
18.92
 10
27.784
 20
18.47
  0
LWPOLYLINE
  5
DC
330
1F
100
AcDbEntity
  8
SP_Top
100
AcDbPolyline
 90
        4
 70
     1
 43
0.0
 10
28.213
 20
17.375
 10
28.213
 20
17.825
 10
28.608
 20
17.825
 10
28.608
 20
17.375
  0
LWPOLYLINE
  5
DD
330
1F
100
AcDbEntity
  8
SP_Top
100
AcDbPolyline
 90
        4
 70
     1
 43
0.0
 10
28.214
 20
18.47
 10
28.214
 20
18.92
 10
28.609
 20
18.92
 10
28.609
 20
18.47
  0
LWPOLYLINE
  5
DE
330
1F
100
AcDbEntity
  8
SP_Top
100
AcDbPolyline
 90
        4
 70
     1
 43
0.0
 10
29.6495
 20
12.4
 10
29.6495
 20
13.0
 10
30.3495
 20
13.0
 10
30.3495
 20
12.4
  0
LWPOLYLINE
  5
DF
330
1F
100
AcDbEntity
  8
SP_Top
100
AcDbPolyline
 90
        4
 70
     1
 43
0.0
 10
29.6495
 20
15.4
 10
29.6495
 20
16.0
 10
30.3495
 20
16.0
 10
30.3495
 20
15.4
  0
LWPOLYLINE
  5
E0
330
1F
100
AcDbEntity
  8
SP_Top
100
AcDbPolyline
 90
        4
 70
     1
 43
0.0
 10
30.625
 20
13.5905
 10
30.625
 20
13.9855
 10
31.075
 20
13.9855
 10
31.075
 20
13.5905
  0
LWPOLYLINE
  5
E1
330
1F
100
AcDbEntity
  8
SP_Top
100
AcDbPolyline
 90
        4
 70
     1
 43
0.0
 10
30.625
 20
14.4155
 10
30.625
 20
14.8105
 10
31.075
 20
14.8105
 10
31.075
 20
14.4155
  0
LWPOLYLINE
  5
E2
330
1F
100
AcDbEntity
  8
SP_Top
100
AcDbPolyline
 90
        4
 70
     1
 43
0.0
 10
31.3505
 20
12.3995
 10
31.3505
 20
13.0
 10
32.0505
 20
13.0
 10
32.0505
 20
12.3995
  0
LWPOLYLINE
  5
E3
330
1F
100
AcDbEntity
  8
SP_Top
100
AcDbPolyline
 90
        4
 70
     1
 43
0.0
 10
31.3505
 20
15.4
 10
31.3505
 20
16.0005
 10
32.0505
 20
16.0005
 10
32.0505
 20
15.4
  0
LWPOLYLINE
  5
E4
330
1F
100
AcDbEntity
  8
SP_Top
100
AcDbPolyline
 90
        5
 70
     1
 43
0.0
 10
35.95
 20
12.4
 10
35.9505
 20
12.7
 10
35.95
 20
13.0
 10
36.6505
 20
13.0
 10
36.6505
 20
12.4
  0
LWPOLYLINE
  5
E5
330
1F
100
AcDbEntity
  8
SP_Top
100
AcDbPolyline
 90
        4
 70
     1
 43
0.0
 10
35.9505
 20
13.9
 10
35.9505
 20
14.5
 10
36.6505
 20
14.5
 10
36.6505
 20
13.9
  0
LWPOLYLINE
  5
E6
330
1F
100
AcDbEntity
  8
SP_Top
100
AcDbPolyline
 90
        4
 70
     1
 43
0.0
 10
35.95
 20
15.4
 10
35.9505
 20
16.0
 10
36.6505
 20
16.0
 10
36.65
 20
15.4
  0
LWPOLYLINE
  5
E7
330
1F
100
AcDbEntity
  8
SP_Top
100
AcDbPolyline
 90
        4
 70
     1
 43
0.0
 10
37.14
 20
12.475
 10
37.14
 20
12.925
 10
37.535
 20
12.925
 10
37.535
 20
12.475
  0
LWPOLYLINE
  5
E8
330
1F
100
AcDbEntity
  8
SP_Top
100
AcDbPolyline
 90
        4
 70
     1
 43
0.0
 10
37.14
 20
15.475
 10
37.14
 20
15.925
 10
37.535
 20
15.925
 10
37.535
 20
15.475
  0
LWPOLYLINE
  5
E9
330
1F
100
AcDbEntity
  8
SP_Top
100
AcDbPolyline
 90
        4
 70
     1
 43
0.0
 10
37.965
 20
12.475
 10
37.965
 20
12.925
 10
38.36
 20
12.925
 10
38.36
 20
12.475
  0
LWPOLYLINE
  5
EA
330
1F
100
AcDbEntity
  8
SP_Top
100
AcDbPolyline
 90
        4
 70
     1
 43
0.0
 10
37.965
 20
15.475
 10
37.965
 20
15.925
 10
38.36
 20
15.925
 10
38.36
 20
15.475
  0
LWPOLYLINE
  5
EB
330
1F
100
AcDbEntity
  8
SP_Top
100
AcDbPolyline
 90
        4
 70
     1
 43
0.0
 10
38.64
 20
15.475
 10
38.64
 20
15.925
 10
39.035
 20
15.925
 10
39.035
 20
15.475
  0
LWPOLYLINE
  5
EC
330
1F
100
AcDbEntity
  8
SP_Top
100
AcDbPolyline
 90
        4
 70
     1
 43
0.0
 10
39.465
 20
15.475
 10
39.465
 20
15.925
 10
39.86
 20
15.925
 10
39.86
 20
15.475
  0
CIRCLE
  5
ED
330
1F
100
AcDbEntity
  8
Via_1_2_3
100
AcDbCircle
 10
-8.1755
 20
13.735
 30
0.0
 40
0.15
  0
CIRCLE
  5
EF
330
1F
100
AcDbEntity
  8
Via_1_2_3
100
AcDbCircle
 10
-8.1755
 20
17.685
 30
0.0
 40
0.15
  0
CIRCLE
  5
F0
330
1F
100
AcDbEntity
  8
Via_1_2_3
100
AcDbCircle
 10
-7.45
 20
-3.05
 30
0.0
 40
0.25
  0
CIRCLE
  5
F1
330
1F
100
AcDbEntity
  8
Via_1_2_3
100
AcDbCircle
 10
-7.45
 20
-1.55
 30
0.0
 40
0.25
  0
CIRCLE
  5
F2
330
1F
100
AcDbEntity
  8
Via_1_2_3
100
AcDbCircle
 10
-7.45
 20
-0.05
 30
0.0
 40
0.25
  0
CIRCLE
  5
F3
330
1F
100
AcDbEntity
  8
Via_1_2_3
100
AcDbCircle
 10
-7.45
 20
1.45
 30
0.0
 40
0.25
  0
CIRCLE
  5
F4
330
1F
100
AcDbEntity
  8
Via_1_2_3
100
AcDbCircle
 10
-7.45
 20
2.95
 30
0.0
 40
0.25
  0
CIRCLE
  5
F5
330
1F
100
AcDbEntity
  8
Via_1_2_3
100
AcDbCircle
 10
-7.45
 20
4.45
 30
0.0
 40
0.25
  0
CIRCLE
  5
F6
330
1F
100
AcDbEntity
  8
Via_1_2_3
100
AcDbCircle
 10
-7.45
 20
5.95
 30
0.0
 40
0.25
  0
CIRCLE
  5
F7
330
1F
100
AcDbEntity
  8
Via_1_2_3
100
AcDbCircle
 10
-7.45
 20
7.45
 30
0.0
 40
0.25
  0
CIRCLE
  5
F8
330
1F
100
AcDbEntity
  8
Via_1_2_3
100
AcDbCircle
 10
-7.45
 20
8.950000000000001
 30
0.0
 40
0.25
  0
CIRCLE
  5
F9
330
1F
100
AcDbEntity
  8
Via_1_2_3
100
AcDbCircle
 10
-7.45
 20
10.45
 30
0.0
 40
0.25
  0
CIRCLE
  5
FA
330
1F
100
AcDbEntity
  8
Via_1_2_3
100
AcDbCircle
 10
-7.45
 20
11.95
 30
0.0
 40
0.25
  0
CIRCLE
  5
FB
330
1F
100
AcDbEntity
  8
Via_1_2_3
100
AcDbCircle
 10
-7.45
 20
19.45
 30
0.0
 40
0.25
  0
CIRCLE
  5
FC
330
1F
100
AcDbEntity
  8
Via_1_2_3
100
AcDbCircle
 10
-7.45
 20
20.95
 30
0.0
 40
0.25
  0
CIRCLE
  5
FD
330
1F
100
AcDbEntity
  8
Via_1_2_3
100
AcDbCircle
 10
-7.45
 20
22.45
 30
0.0
 40
0.25
  0
CIRCLE
  5
FE
330
1F
100
AcDbEntity
  8
Via_1_2_3
100
AcDbCircle
 10
-7.45
 20
23.95
 30
0.0
 40
0.25
  0
CIRCLE
  5
FF
330
1F
100
AcDbEntity
  8
Via_1_2_3
100
AcDbCircle
 10
-7.45
 20
25.45
 30
0.0
 40
0.25
  0
CIRCLE
  5
100
330
1F
100
AcDbEntity
  8
Via_1_2_3
100
AcDbCircle
 10
-7.45
 20
26.95
 30
0.0
 40
0.25
  0
CIRCLE
  5
101
330
1F
100
AcDbEntity
  8
Via_1_2_3
100
AcDbCircle
 10
-7.45
 20
28.45
 30
0.0
 40
0.25
  0
CIRCLE
  5
102
330
1F
100
AcDbEntity
  8
Via_1_2_3
100
AcDbCircle
 10
-7.45
 20
29.95
 30
0.0
 40
0.25
  0
CIRCLE
  5
103
330
1F
100
AcDbEntity
  8
Via_1_2_3
100
AcDbCircle
 10
-7.45
 20
31.45
 30
0.0
 40
0.25
  0
CIRCLE
  5
104
330
1F
100
AcDbEntity
  8
Via_1_2_3
100
AcDbCircle
 10
-7.45
 20
32.95
 30
0.0
 40
0.25
  0
CIRCLE
  5
105
330
1F
100
AcDbEntity
  8
Via_1_2_3
100
AcDbCircle
 10
-7.45
 20
34.45
 30
0.0
 40
0.25
  0
CIRCLE
  5
106
330
1F
100
AcDbEntity
  8
Via_1_2_3
100
AcDbCircle
 10
-7.1755
 20
13.735
 30
0.0
 40
0.15
  0
CIRCLE
  5
107
330
1F
100
AcDbEntity
  8
Via_1_2_3
100
AcDbCircle
 10
-7.1755
 20
17.685
 30
0.0
 40
0.15
  0
CIRCLE
  5
108
330
1F
100
AcDbEntity
  8
Via_1_2_3
100
AcDbCircle
 10
-6.1755
 20
13.735
 30
0.0
 40
0.15
  0
CIRCLE
  5
109
330
1F
100
AcDbEntity
  8
Via_1_2_3
100
AcDbCircle
 10
-6.1755
 20
17.685
 30
0.0
 40
0.15
  0
CIRCLE
  5
10A
330
1F
100
AcDbEntity
  8
Via_1_2_3
100
AcDbCircle
 10
-5.95
 20
-3.05
 30
0.0
 40
0.25
  0
CIRCLE
  5
10B
330
1F
100
AcDbEntity
  8
Via_1_2_3
100
AcDbCircle
 10
-5.95
 20
-1.55
 30
0.0
 40
0.25
  0
CIRCLE
  5
10C
330
1F
100
AcDbEntity
  8
Via_1_2_3
100
AcDbCircle
 10
-5.95
 20
-0.05
 30
0.0
 40
0.25
  0
CIRCLE
  5
10D
330
1F
100
AcDbEntity
  8
Via_1_2_3
100
AcDbCircle
 10
-5.95
 20
1.45
 30
0.0
 40
0.25
  0
CIRCLE
  5
10E
330
1F
100
AcDbEntity
  8
Via_1_2_3
100
AcDbCircle
 10
-5.95
 20
2.95
 30
0.0
 40
0.25
  0
CIRCLE
  5
10F
330
1F
100
AcDbEntity
  8
Via_1_2_3
100
AcDbCircle
 10
-5.95
 20
4.45
 30
0.0
 40
0.25
  0
CIRCLE
  5
110
330
1F
100
AcDbEntity
  8
Via_1_2_3
100
AcDbCircle
 10
-5.95
 20
5.95
 30
0.0
 40
0.25
  0
CIRCLE
  5
111
330
1F
100
AcDbEntity
  8
Via_1_2_3
100
AcDbCircle
 10
-5.95
 20
7.45
 30
0.0
 40
0.25
  0
CIRCLE
  5
112
330
1F
100
AcDbEntity
  8
Via_1_2_3
100
AcDbCircle
 10
-5.95
 20
8.950000000000001
 30
0.0
 40
0.25
  0
CIRCLE
  5
113
330
1F
100
AcDbEntity
  8
Via_1_2_3
100
AcDbCircle
 10
-5.95
 20
10.45
 30
0.0
 40
0.25
  0
CIRCLE
  5
114
330
1F
100
AcDbEntity
  8
Via_1_2_3
100
AcDbCircle
 10
-5.95
 20
11.95
 30
0.0
 40
0.25
  0
CIRCLE
  5
115
330
1F
100
AcDbEntity
  8
Via_1_2_3
100
AcDbCircle
 10
-5.95
 20
19.45
 30
0.0
 40
0.25
  0
CIRCLE
  5
116
330
1F
100
AcDbEntity
  8
Via_1_2_3
100
AcDbCircle
 10
-5.95
 20
20.95
 30
0.0
 40
0.25
  0
CIRCLE
  5
117
330
1F
100
AcDbEntity
  8
Via_1_2_3
100
AcDbCircle
 10
-5.95
 20
22.45
 30
0.0
 40
0.25
  0
CIRCLE
  5
118
330
1F
100
AcDbEntity
  8
Via_1_2_3
100
AcDbCircle
 10
-5.95
 20
23.95
 30
0.0
 40
0.25
  0
CIRCLE
  5
119
330
1F
100
AcDbEntity
  8
Via_1_2_3
100
AcDbCircle
 10
-5.95
 20
25.45
 30
0.0
 40
0.25
  0
CIRCLE
  5
11A
330
1F
100
AcDbEntity
  8
Via_1_2_3
100
AcDbCircle
 10
-5.95
 20
26.95
 30
0.0
 40
0.25
  0
CIRCLE
  5
11B
330
1F
100
AcDbEntity
  8
Via_1_2_3
100
AcDbCircle
 10
-5.95
 20
28.45
 30
0.0
 40
0.25
  0
CIRCLE
  5
11C
330
1F
100
AcDbEntity
  8
Via_1_2_3
100
AcDbCircle
 10
-5.95
 20
29.95
 30
0.0
 40
0.25
  0
CIRCLE
  5
11D
330
1F
100
AcDbEntity
  8
Via_1_2_3
100
AcDbCircle
 10
-5.95
 20
31.45
 30
0.0
 40
0.25
  0
CIRCLE
  5
11E
330
1F
100
AcDbEntity
  8
Via_1_2_3
100
AcDbCircle
 10
-5.95
 20
32.95
 30
0.0
 40
0.25
  0
CIRCLE
  5
11F
330
1F
100
AcDbEntity
  8
Via_1_2_3
100
AcDbCircle
 10
-5.95
 20
34.45
 30
0.0
 40
0.25
  0
CIRCLE
  5
120
330
1F
100
AcDbEntity
  8
Via_1_2_3
100
AcDbCircle
 10
-5.1755
 20
13.735
 30
0.0
 40
0.15
  0
CIRCLE
  5
121
330
1F
100
AcDbEntity
  8
Via_1_2_3
100
AcDbCircle
 10
-5.1755
 20
17.685
 30
0.0
 40
0.15
  0
CIRCLE
  5
122
330
1F
100
AcDbEntity
  8
Via_1_2_3
100
AcDbCircle
 10
-4.45
 20
-3.05
 30
0.0
 40
0.25
  0
CIRCLE
  5
123
330
1F
100
AcDbEntity
  8
Via_1_2_3
100
AcDbCircle
 10
-4.45
 20
-1.55
 30
0.0
 40
0.25
  0
CIRCLE
  5
124
330
1F
100
AcDbEntity
  8
Via_1_2_3
100
AcDbCircle
 10
-4.45
 20
32.95
 30
0.0
 40
0.25
  0
CIRCLE
  5
125
330
1F
100
AcDbEntity
  8
Via_1_2_3
100
AcDbCircle
 10
-4.45
 20
34.45
 30
0.0
 40
0.25
  0
CIRCLE
  5
126
330
1F
100
AcDbEntity
  8
Via_1_2_3
100
AcDbCircle
 10
-4.1755
 20
13.735
 30
0.0
 40
0.15
  0
CIRCLE
  5
127
330
1F
100
AcDbEntity
  8
Via_1_2_3
100
AcDbCircle
 10
-4.1755
 20
17.685
 30
0.0
 40
0.15
  0
CIRCLE
  5
128
330
1F
100
AcDbEntity
  8
Via_1_2_3
100
AcDbCircle
 10
-3.1755
 20
13.735
 30
0.0
 40
0.15
  0
CIRCLE
  5
129
330
1F
100
AcDbEntity
  8
Via_1_2_3
100
AcDbCircle
 10
-3.1755
 20
17.685
 30
0.0
 40
0.15
  0
CIRCLE
  5
12A
330
1F
100
AcDbEntity
  8
Via_1_2_3
100
AcDbCircle
 10
-2.95
 20
-3.05
 30
0.0
 40
0.25
  0
CIRCLE
  5
12B
330
1F
100
AcDbEntity
  8
Via_1_2_3
100
AcDbCircle
 10
-2.95
 20
-1.55
 30
0.0
 40
0.25
  0
CIRCLE
  5
12C
330
1F
100
AcDbEntity
  8
Via_1_2_3
100
AcDbCircle
 10
-2.95
 20
32.95
 30
0.0
 40
0.25
  0
CIRCLE
  5
12D
330
1F
100
AcDbEntity
  8
Via_1_2_3
100
AcDbCircle
 10
-2.95
 20
34.45
 30
0.0
 40
0.25
  0
CIRCLE
  5
12E
330
1F
100
AcDbEntity
  8
Via_1_2_3
100
AcDbCircle
 10
-2.1755
 20
13.735
 30
0.0
 40
0.15
  0
CIRCLE
  5
12F
330
1F
100
AcDbEntity
  8
Via_1_2_3
100
AcDbCircle
 10
-2.1755
 20
17.685
 30
0.0
 40
0.15
  0
CIRCLE
  5
130
330
1F
100
AcDbEntity
  8
Via_1_2_3
100
AcDbCircle
 10
-3.0
 20
11.0
 30
0.0
 40
1.2
  0
CIRCLE
  5
131
330
1F
100
AcDbEntity
  8
Via_1_2_3
100
AcDbCircle
 10
-3.0
 20
20.4
 30
0.0
 40
1.2
  0
CIRCLE
  5
132
330
1F
100
AcDbEntity
  8
Via_1_2_3
100
AcDbCircle
 10
-1.45
 20
-3.05
 30
0.0
 40
0.25
  0
CIRCLE
  5
133
330
1F
100
AcDbEntity
  8
Via_1_2_3
100
AcDbCircle
 10
-1.45
 20
-1.55
 30
0.0
 40
0.25
  0
CIRCLE
  5
134
330
1F
100
AcDbEntity
  8
Via_1_2_3
100
AcDbCircle
 10
-1.45
 20
32.95
 30
0.0
 40
0.25
  0
CIRCLE
  5
135
330
1F
100
AcDbEntity
  8
Via_1_2_3
100
AcDbCircle
 10
-1.45
 20
34.45
 30
0.0
 40
0.25
  0
CIRCLE
  5
136
330
1F
100
AcDbEntity
  8
Via_1_2_3
100
AcDbCircle
 10
-1.1755
 20
13.735
 30
0.0
 40
0.15
  0
CIRCLE
  5
137
330
1F
100
AcDbEntity
  8
Via_1_2_3
100
AcDbCircle
 10
-1.1755
 20
17.685
 30
0.0
 40
0.15
  0
CIRCLE
  5
138
330
1F
100
AcDbEntity
  8
Via_1_2_3
100
AcDbCircle
 10
-0.1755
 20
13.735
 30
0.0
 40
0.15
  0
CIRCLE
  5
139
330
1F
100
AcDbEntity
  8
Via_1_2_3
100
AcDbCircle
 10
-0.1755
 20
17.685
 30
0.0
 40
0.15
  0
CIRCLE
  5
13A
330
1F
100
AcDbEntity
  8
Via_1_2_3
100
AcDbCircle
 10
0.05
 20
-3.05
 30
0.0
 40
0.25
  0
CIRCLE
  5
13B
330
1F
100
AcDbEntity
  8
Via_1_2_3
100
AcDbCircle
 10
0.05
 20
-1.55
 30
0.0
 40
0.25
  0
CIRCLE
  5
13C
330
1F
100
AcDbEntity
  8
Via_1_2_3
100
AcDbCircle
 10
0.05
 20
32.95
 30
0.0
 40
0.25
  0
CIRCLE
  5
13D
330
1F
100
AcDbEntity
  8
Via_1_2_3
100
AcDbCircle
 10
0.05
 20
34.45
 30
0.0
 40
0.25
  0
CIRCLE
  5
13E
330
1F
100
AcDbEntity
  8
Via_1_2_3
100
AcDbCircle
 10
0.8245
 20
13.735
 30
0.0
 40
0.15
  0
CIRCLE
  5
13F
330
1F
100
AcDbEntity
  8
Via_1_2_3
100
AcDbCircle
 10
0.8245
 20
17.685
 30
0.0
 40
0.15
  0
CIRCLE
  5
140
330
1F
100
AcDbEntity
  8
Via_1_2_3
100
AcDbCircle
 10
1.55
 20
-3.05
 30
0.0
 40
0.25
  0
CIRCLE
  5
141
330
1F
100
AcDbEntity
  8
Via_1_2_3
100
AcDbCircle
 10
1.55
 20
-1.55
 30
0.0
 40
0.25
  0
CIRCLE
  5
142
330
1F
100
AcDbEntity
  8
Via_1_2_3
100
AcDbCircle
 10
1.55
 20
32.95
 30
0.0
 40
0.25
  0
CIRCLE
  5
143
330
1F
100
AcDbEntity
  8
Via_1_2_3
100
AcDbCircle
 10
1.55
 20
34.45
 30
0.0
 40
0.25
  0
CIRCLE
  5
144
330
1F
100
AcDbEntity
  8
Via_1_2_3
100
AcDbCircle
 10
1.8245
 20
13.735
 30
0.0
 40
0.15
  0
CIRCLE
  5
145
330
1F
100
AcDbEntity
  8
Via_1_2_3
100
AcDbCircle
 10
1.8245
 20
17.685
 30
0.0
 40
0.15
  0
CIRCLE
  5
146
330
1F
100
AcDbEntity
  8
Via_1_2_3
100
AcDbCircle
 10
2.8245
 20
10.735
 30
0.0
 40
0.15
  0
CIRCLE
  5
147
330
1F
100
AcDbEntity
  8
Via_1_2_3
100
AcDbCircle
 10
2.8245
 20
11.735
 30
0.0
 40
0.15
  0
CIRCLE
  5
148
330
1F
100
AcDbEntity
  8
Via_1_2_3
100
AcDbCircle
 10
2.8245
 20
12.735
 30
0.0
 40
0.15
  0
CIRCLE
  5
149
330
1F
100
AcDbEntity
  8
Via_1_2_3
100
AcDbCircle
 10
2.8245
 20
13.735
 30
0.0
 40
0.15
  0
CIRCLE
  5
14A
330
1F
100
AcDbEntity
  8
Via_1_2_3
100
AcDbCircle
 10
2.8245
 20
17.685
 30
0.0
 40
0.15
  0
CIRCLE
  5
14B
330
1F
100
AcDbEntity
  8
Via_1_2_3
100
AcDbCircle
 10
3.05
 20
-3.05
 30
0.0
 40
0.25
  0
CIRCLE
  5
14C
330
1F
100
AcDbEntity
  8
Via_1_2_3
100
AcDbCircle
 10
3.05
 20
-1.55
 30
0.0
 40
0.25
  0
CIRCLE
  5
14D
330
1F
100
AcDbEntity
  8
Via_1_2_3
100
AcDbCircle
 10
3.05
 20
32.95
 30
0.0
 40
0.25
  0
CIRCLE
  5
14E
330
1F
100
AcDbEntity
  8
Via_1_2_3
100
AcDbCircle
 10
3.05
 20
34.45
 30
0.0
 40
0.25
  0
CIRCLE
  5
14F
330
1F
100
AcDbEntity
  8
Via_1_2_3
100
AcDbCircle
 10
3.8245
 20
10.735
 30
0.0
 40
0.15
  0
CIRCLE
  5
150
330
1F
100
AcDbEntity
  8
Via_1_2_3
100
AcDbCircle
 10
3.8245
 20
17.685
 30
0.0
 40
0.15
  0
CIRCLE
  5
151
330
1F
100
AcDbEntity
  8
Via_1_2_3
100
AcDbCircle
 10
4.55
 20
-3.05
 30
0.0
 40
0.25
  0
CIRCLE
  5
152
330
1F
100
AcDbEntity
  8
Via_1_2_3
100
AcDbCircle
 10
4.55
 20
-1.55
 30
0.0
 40
0.25
  0
CIRCLE
  5
153
330
1F
100
AcDbEntity
  8
Via_1_2_3
100
AcDbCircle
 10
4.55
 20
32.95
 30
0.0
 40
0.25
  0
CIRCLE
  5
154
330
1F
100
AcDbEntity
  8
Via_1_2_3
100
AcDbCircle
 10
4.55
 20
34.45
 30
0.0
 40
0.25
  0
CIRCLE
  5
155
330
1F
100
AcDbEntity
  8
Via_1_2_3
100
AcDbCircle
 10
4.8245
 20
10.735
 30
0.0
 40
0.15
  0
CIRCLE
  5
156
330
1F
100
AcDbEntity
  8
Via_1_2_3
100
AcDbCircle
 10
4.8245
 20
17.685
 30
0.0
 40
0.15
  0
CIRCLE
  5
157
330
1F
100
AcDbEntity
  8
Via_1_2_3
100
AcDbCircle
 10
5.8245
 20
10.735
 30
0.0
 40
0.15
  0
CIRCLE
  5
158
330
1F
100
AcDbEntity
  8
Via_1_2_3
100
AcDbCircle
 10
5.8245
 20
17.685
 30
0.0
 40
0.15
  0
CIRCLE
  5
159
330
1F
100
AcDbEntity
  8
Via_1_2_3
100
AcDbCircle
 10
6.05
 20
-3.05
 30
0.0
 40
0.25
  0
CIRCLE
  5
15A
330
1F
100
AcDbEntity
  8
Via_1_2_3
100
AcDbCircle
 10
6.05
 20
-1.55
 30
0.0
 40
0.25
  0
CIRCLE
  5
15B
330
1F
100
AcDbEntity
  8
Via_1_2_3
100
AcDbCircle
 10
6.05
 20
32.95
 30
0.0
 40
0.25
  0
CIRCLE
  5
15C
330
1F
100
AcDbEntity
  8
Via_1_2_3
100
AcDbCircle
 10
6.05
 20
34.45
 30
0.0
 40
0.25
  0
CIRCLE
  5
15D
330
1F
100
AcDbEntity
  8
Via_1_2_3
100
AcDbCircle
 10
6.8245
 20
10.735
 30
0.0
 40
0.15
  0
CIRCLE
  5
15E
330
1F
100
AcDbEntity
  8
Via_1_2_3
100
AcDbCircle
 10
6.8245
 20
17.685
 30
0.0
 40
0.15
  0
CIRCLE
  5
15F
330
1F
100
AcDbEntity
  8
Via_1_2_3
100
AcDbCircle
 10
7.55
 20
-3.05
 30
0.0
 40
0.25
  0
CIRCLE
  5
160
330
1F
100
AcDbEntity
  8
Via_1_2_3
100
AcDbCircle
 10
7.55
 20
-1.55
 30
0.0
 40
0.25
  0
CIRCLE
  5
161
330
1F
100
AcDbEntity
  8
Via_1_2_3
100
AcDbCircle
 10
7.55
 20
32.95
 30
0.0
 40
0.25
  0
CIRCLE
  5
162
330
1F
100
AcDbEntity
  8
Via_1_2_3
100
AcDbCircle
 10
7.55
 20
34.45
 30
0.0
 40
0.25
  0
CIRCLE
  5
163
330
1F
100
AcDbEntity
  8
Via_1_2_3
100
AcDbCircle
 10
7.8245
 20
10.735
 30
0.0
 40
0.15
  0
CIRCLE
  5
164
330
1F
100
AcDbEntity
  8
Via_1_2_3
100
AcDbCircle
 10
7.8245
 20
17.685
 30
0.0
 40
0.15
  0
CIRCLE
  5
165
330
1F
100
AcDbEntity
  8
Via_1_2_3
100
AcDbCircle
 10
8.8245
 20
10.735
 30
0.0
 40
0.15
  0
CIRCLE
  5
166
330
1F
100
AcDbEntity
  8
Via_1_2_3
100
AcDbCircle
 10
8.8245
 20
17.685
 30
0.0
 40
0.15
  0
CIRCLE
  5
167
330
1F
100
AcDbEntity
  8
Via_1_2_3
100
AcDbCircle
 10
9.05
 20
-3.05
 30
0.0
 40
0.25
  0
CIRCLE
  5
168
330
1F
100
AcDbEntity
  8
Via_1_2_3
100
AcDbCircle
 10
9.05
 20
-1.55
 30
0.0
 40
0.25
  0
CIRCLE
  5
169
330
1F
100
AcDbEntity
  8
Via_1_2_3
100
AcDbCircle
 10
9.05
 20
32.95
 30
0.0
 40
0.25
  0
CIRCLE
  5
16A
330
1F
100
AcDbEntity
  8
Via_1_2_3
100
AcDbCircle
 10
9.05
 20
34.45
 30
0.0
 40
0.25
  0
CIRCLE
  5
16B
330
1F
100
AcDbEntity
  8
Via_1_2_3
100
AcDbCircle
 10
9.8245
 20
10.735
 30
0.0
 40
0.15
  0
CIRCLE
  5
16C
330
1F
100
AcDbEntity
  8
Via_1_2_3
100
AcDbCircle
 10
9.8245
 20
17.685
 30
0.0
 40
0.15
  0
CIRCLE
  5
16D
330
1F
100
AcDbEntity
  8
Via_1_2_3
100
AcDbCircle
 10
10.55
 20
-3.05
 30
0.0
 40
0.25
  0
CIRCLE
  5
16E
330
1F
100
AcDbEntity
  8
Via_1_2_3
100
AcDbCircle
 10
10.55
 20
-1.55
 30
0.0
 40
0.25
  0
CIRCLE
  5
16F
330
1F
100
AcDbEntity
  8
Via_1_2_3
100
AcDbCircle
 10
10.55
 20
32.95
 30
0.0
 40
0.25
  0
CIRCLE
  5
170
330
1F
100
AcDbEntity
  8
Via_1_2_3
100
AcDbCircle
 10
10.55
 20
34.45
 30
0.0
 40
0.25
  0
CIRCLE
  5
171
330
1F
100
AcDbEntity
  8
Via_1_2_3
100
AcDbCircle
 10
10.8245
 20
10.735
 30
0.0
 40
0.15
  0
CIRCLE
  5
172
330
1F
100
AcDbEntity
  8
Via_1_2_3
100
AcDbCircle
 10
10.8245
 20
17.685
 30
0.0
 40
0.15
  0
CIRCLE
  5
173
330
1F
100
AcDbEntity
  8
Via_1_2_3
100
AcDbCircle
 10
11.8245
 20
10.735
 30
0.0
 40
0.15
  0
CIRCLE
  5
174
330
1F
100
AcDbEntity
  8
Via_1_2_3
100
AcDbCircle
 10
11.8245
 20
17.685
 30
0.0
 40
0.15
  0
CIRCLE
  5
175
330
1F
100
AcDbEntity
  8
Via_1_2_3
100
AcDbCircle
 10
12.05
 20
-3.05
 30
0.0
 40
0.25
  0
CIRCLE
  5
176
330
1F
100
AcDbEntity
  8
Via_1_2_3
100
AcDbCircle
 10
12.05
 20
-1.55
 30
0.0
 40
0.25
  0
CIRCLE
  5
177
330
1F
100
AcDbEntity
  8
Via_1_2_3
100
AcDbCircle
 10
12.05
 20
32.95
 30
0.0
 40
0.25
  0
CIRCLE
  5
178
330
1F
100
AcDbEntity
  8
Via_1_2_3
100
AcDbCircle
 10
12.05
 20
34.45
 30
0.0
 40
0.25
  0
CIRCLE
  5
179
330
1F
100
AcDbEntity
  8
Via_1_2_3
100
AcDbCircle
 10
12.7245
 20
18.085
 30
0.0
 40
0.15
  0
CIRCLE
  5
17A
330
1F
100
AcDbEntity
  8
Via_1_2_3
100
AcDbCircle
 10
12.8245
 20
10.735
 30
0.0
 40
0.15
  0
CIRCLE
  5
17B
330
1F
100
AcDbEntity
  8
Via_1_2_3
100
AcDbCircle
 10
13.4315
 20
18.7925
 30
0.0
 40
0.15
  0
CIRCLE
  5
17C
330
1F
100
AcDbEntity
  8
Via_1_2_3
100
AcDbCircle
 10
13.586
 20
9.864
 30
0.0
 40
0.15
  0
CIRCLE
  5
17D
330
1F
100
AcDbEntity
  8
Via_1_2_3
100
AcDbCircle
 10
13.55
 20
-3.05
 30
0.0
 40
0.25
  0
CIRCLE
  5
17E
330
1F
100
AcDbEntity
  8
Via_1_2_3
100
AcDbCircle
 10
13.55
 20
-1.55
 30
0.0
 40
0.25
  0
CIRCLE
  5
17F
330
1F
100
AcDbEntity
  8
Via_1_2_3
100
AcDbCircle
 10
13.55
 20
32.95
 30
0.0
 40
0.25
  0
CIRCLE
  5
180
330
1F
100
AcDbEntity
  8
Via_1_2_3
100
AcDbCircle
 10
13.55
 20
34.45
 30
0.0
 40
0.25
  0
CIRCLE
  5
181
330
1F
100
AcDbEntity
  8
Via_1_2_3
100
AcDbCircle
 10
14.1385
 20
19.5
 30
0.0
 40
0.15
  0
CIRCLE
  5
182
330
1F
100
AcDbEntity
  8
Via_1_2_3
100
AcDbCircle
 10
14.493
 20
8.957
 30
0.0
 40
0.15
  0
CIRCLE
  5
183
330
1F
100
AcDbEntity
  8
Via_1_2_3
100
AcDbCircle
 10
15.05
 20
-3.05
 30
0.0
 40
0.25
  0
CIRCLE
  5
184
330
1F
100
AcDbEntity
  8
Via_1_2_3
100
AcDbCircle
 10
15.05
 20
-1.55
 30
0.0
 40
0.25
  0
CIRCLE
  5
185
330
1F
100
AcDbEntity
  8
Via_1_2_3
100
AcDbCircle
 10
15.05
 20
32.95
 30
0.0
 40
0.25
  0
CIRCLE
  5
186
330
1F
100
AcDbEntity
  8
Via_1_2_3
100
AcDbCircle
 10
15.05
 20
34.45
 30
0.0
 40
0.25
  0
CIRCLE
  5
187
330
1F
100
AcDbEntity
  8
Via_1_2_3
100
AcDbCircle
 10
15.2455
 20
19.9065
 30
0.0
 40
0.15
  0
CIRCLE
  5
188
330
1F
100
AcDbEntity
  8
Via_1_2_3
100
AcDbCircle
 10
15.3
 20
8.15
 30
0.0
 40
0.15
  0
CIRCLE
  5
189
330
1F
100
AcDbEntity
  8
Via_1_2_3
100
AcDbCircle
 10
16.3
 20
8.15
 30
0.0
 40
0.15
  0
CIRCLE
  5
18A
330
1F
100
AcDbEntity
  8
Via_1_2_3
100
AcDbCircle
 10
16.3455
 20
19.9065
 30
0.0
 40
0.15
  0
CIRCLE
  5
18B
330
1F
100
AcDbEntity
  8
Via_1_2_3
100
AcDbCircle
 10
16.353
 20
20.9135
 30
0.0
 40
0.15
  0
CIRCLE
  5
18C
330
1F
100
AcDbEntity
  8
Via_1_2_3
100
AcDbCircle
 10
16.353
 20
21.9135
 30
0.0
 40
0.15
  0
CIRCLE
  5
18D
330
1F
100
AcDbEntity
  8
Via_1_2_3
100
AcDbCircle
 10
16.3605
 20
22.9205
 30
0.0
 40
0.15
  0
CIRCLE
  5
18E
330
1F
100
AcDbEntity
  8
Via_1_2_3
100
AcDbCircle
 10
16.3605
 20
23.9205
 30
0.0
 40
0.15
  0
CIRCLE
  5
18F
330
1F
100
AcDbEntity
  8
Via_1_2_3
100
AcDbCircle
 10
16.368
 20
24.9275
 30
0.0
 40
0.15
  0
CIRCLE
  5
190
330
1F
100
AcDbEntity
  8
Via_1_2_3
100
AcDbCircle
 10
16.55
 20
-3.05
 30
0.0
 40
0.25
  0
CIRCLE
  5
191
330
1F
100
AcDbEntity
  8
Via_1_2_3
100
AcDbCircle
 10
16.55
 20
-1.55
 30
0.0
 40
0.25
  0
CIRCLE
  5
192
330
1F
100
AcDbEntity
  8
Via_1_2_3
100
AcDbCircle
 10
16.55
 20
32.95
 30
0.0
 40
0.25
  0
CIRCLE
  5
193
330
1F
100
AcDbEntity
  8
Via_1_2_3
100
AcDbCircle
 10
16.55
 20
34.45
 30
0.0
 40
0.25
  0
CIRCLE
  5
194
330
1F
100
AcDbEntity
  8
Via_1_2_3
100
AcDbCircle
 10
17.3
 20
8.15
 30
0.0
 40
0.15
  0
CIRCLE
  5
195
330
1F
100
AcDbEntity
  8
Via_1_2_3
100
AcDbCircle
 10
17.368
 20
25.4275
 30
0.0
 40
0.15
  0
CIRCLE
  5
196
330
1F
100
AcDbEntity
  8
Via_1_2_3
100
AcDbCircle
 10
17.5255
 20
7.019
 30
0.0
 40
0.15
  0
CIRCLE
  5
197
330
1F
100
AcDbEntity
  8
Via_1_2_3
100
AcDbCircle
 10
18.05
 20
-3.05
 30
0.0
 40
0.25
  0
CIRCLE
  5
198
330
1F
100
AcDbEntity
  8
Via_1_2_3
100
AcDbCircle
 10
18.05
 20
-1.55
 30
0.0
 40
0.25
  0
CIRCLE
  5
199
330
1F
100
AcDbEntity
  8
Via_1_2_3
100
AcDbCircle
 10
18.05
 20
32.95
 30
0.0
 40
0.25
  0
CIRCLE
  5
19A
330
1F
100
AcDbEntity
  8
Via_1_2_3
100
AcDbCircle
 10
18.05
 20
34.45
 30
0.0
 40
0.25
  0
CIRCLE
  5
19B
330
1F
100
AcDbEntity
  8
Via_1_2_3
100
AcDbCircle
 10
18.3
 20
11.95
 30
0.0
 40
0.15
  0
CIRCLE
  5
19C
330
1F
100
AcDbEntity
  8
Via_1_2_3
100
AcDbCircle
 10
18.3
 20
12.95
 30
0.0
 40
0.15
  0
CIRCLE
  5
19D
330
1F
100
AcDbEntity
  8
Via_1_2_3
100
AcDbCircle
 10
18.3
 20
13.95
 30
0.0
 40
0.15
  0
CIRCLE
  5
19E
330
1F
100
AcDbEntity
  8
Via_1_2_3
100
AcDbCircle
 10
18.3
 20
14.95
 30
0.0
 40
0.15
  0
CIRCLE
  5
19F
330
1F
100
AcDbEntity
  8
Via_1_2_3
100
AcDbCircle
 10
18.3
 20
20.45
 30
0.0
 40
0.15
  0
CIRCLE
  5
1A0
330
1F
100
AcDbEntity
  8
Via_1_2_3
100
AcDbCircle
 10
18.3
 20
21.45
 30
0.0
 40
0.15
  0
CIRCLE
  5
1A1
330
1F
100
AcDbEntity
  8
Via_1_2_3
100
AcDbCircle
 10
18.3
 20
22.45
 30
0.0
 40
0.15
  0
CIRCLE
  5
1A2
330
1F
100
AcDbEntity
  8
Via_1_2_3
100
AcDbCircle
 10
18.3
 20
23.45
 30
0.0
 40
0.15
  0
CIRCLE
  5
1A3
330
1F
100
AcDbEntity
  8
Via_1_2_3
100
AcDbCircle
 10
18.368
 20
25.4275
 30
0.0
 40
0.15
  0
CIRCLE
  5
1A4
330
1F
100
AcDbEntity
  8
Via_1_2_3
100
AcDbCircle
 10
18.5255
 20
7.019
 30
0.0
 40
0.15
  0
CIRCLE
  5
1A5
330
1F
100
AcDbEntity
  8
Via_1_2_3
100
AcDbCircle
 10
19.3
 20
14.95
 30
0.0
 40
0.15
  0
CIRCLE
  5
1A6
330
1F
100
AcDbEntity
  8
Via_1_2_3
100
AcDbCircle
 10
19.3
 20
23.45
 30
0.0
 40
0.15
  0
CIRCLE
  5
1A7
330
1F
100
AcDbEntity
  8
Via_1_2_3
100
AcDbCircle
 10
19.368
 20
25.4275
 30
0.0
 40
0.15
  0
CIRCLE
  5
1A8
330
1F
100
AcDbEntity
  8
Via_1_2_3
100
AcDbCircle
 10
19.5255
 20
7.019
 30
0.0
 40
0.15
  0
CIRCLE
  5
1A9
330
1F
100
AcDbEntity
  8
Via_1_2_3
100
AcDbCircle
 10
19.55
 20
-3.05
 30
0.0
 40
0.25
  0
CIRCLE
  5
1AA
330
1F
100
AcDbEntity
  8
Via_1_2_3
100
AcDbCircle
 10
19.55
 20
-1.55
 30
0.0
 40
0.25
  0
CIRCLE
  5
1AB
330
1F
100
AcDbEntity
  8
Via_1_2_3
100
AcDbCircle
 10
19.55
 20
32.95
 30
0.0
 40
0.25
  0
CIRCLE
  5
1AC
330
1F
100
AcDbEntity
  8
Via_1_2_3
100
AcDbCircle
 10
19.55
 20
34.45
 30
0.0
 40
0.25
  0
CIRCLE
  5
1AD
330
1F
100
AcDbEntity
  8
Via_1_2_3
100
AcDbCircle
 10
19.9
 20
11.95
 30
0.0
 40
0.15
  0
CIRCLE
  5
1AE
330
1F
100
AcDbEntity
  8
Via_1_2_3
100
AcDbCircle
 10
19.9
 20
12.65
 30
0.0
 40
0.15
  0
CIRCLE
  5
1AF
330
1F
100
AcDbEntity
  8
Via_1_2_3
100
AcDbCircle
 10
19.9
 20
13.35
 30
0.0
 40
0.15
  0
CIRCLE
  5
1B0
330
1F
100
AcDbEntity
  8
Via_1_2_3
100
AcDbCircle
 10
19.9
 20
20.45
 30
0.0
 40
0.15
  0
CIRCLE
  5
1B1
330
1F
100
AcDbEntity
  8
Via_1_2_3
100
AcDbCircle
 10
19.9
 20
21.15
 30
0.0
 40
0.15
  0
CIRCLE
  5
1B2
330
1F
100
AcDbEntity
  8
Via_1_2_3
100
AcDbCircle
 10
19.9
 20
21.85
 30
0.0
 40
0.15
  0
CIRCLE
  5
1B3
330
1F
100
AcDbEntity
  8
Via_1_2_3
100
AcDbCircle
 10
20.3
 20
14.95
 30
0.0
 40
0.15
  0
CIRCLE
  5
1B4
330
1F
100
AcDbEntity
  8
Via_1_2_3
100
AcDbCircle
 10
20.3
 20
23.45
 30
0.0
 40
0.15
  0
CIRCLE
  5
1B5
330
1F
100
AcDbEntity
  8
Via_1_2_3
100
AcDbCircle
 10
20.368
 20
25.4275
 30
0.0
 40
0.15
  0
CIRCLE
  5
1B6
330
1F
100
AcDbEntity
  8
Via_1_2_3
100
AcDbCircle
 10
20.3755
 20
9.765
 30
0.0
 40
0.15
  0
CIRCLE
  5
1B7
330
1F
100
AcDbEntity
  8
Via_1_2_3
100
AcDbCircle
 10
20.3755
 20
18.265
 30
0.0
 40
0.15
  0
CIRCLE
  5
1B8
330
1F
100
AcDbEntity
  8
Via_1_2_3
100
AcDbCircle
 10
20.5255
 20
7.019
 30
0.0
 40
0.15
  0
CIRCLE
  5
1B9
330
1F
100
AcDbEntity
  8
Via_1_2_3
100
AcDbCircle
 10
20.9
 20
11.95
 30
0.0
 40
0.15
  0
CIRCLE
  5
1BA
330
1F
100
AcDbEntity
  8
Via_1_2_3
100
AcDbCircle
 10
20.9
 20
12.65
 30
0.0
 40
0.15
  0
CIRCLE
  5
1BB
330
1F
100
AcDbEntity
  8
Via_1_2_3
100
AcDbCircle
 10
20.9
 20
13.35
 30
0.0
 40
0.15
  0
CIRCLE
  5
1BC
330
1F
100
AcDbEntity
  8
Via_1_2_3
100
AcDbCircle
 10
20.9
 20
20.45
 30
0.0
 40
0.15
  0
CIRCLE
  5
1BD
330
1F
100
AcDbEntity
  8
Via_1_2_3
100
AcDbCircle
 10
20.9
 20
21.15
 30
0.0
 40
0.15
  0
CIRCLE
  5
1BE
330
1F
100
AcDbEntity
  8
Via_1_2_3
100
AcDbCircle
 10
20.9
 20
21.85
 30
0.0
 40
0.15
  0
CIRCLE
  5
1BF
330
1F
100
AcDbEntity
  8
Via_1_2_3
100
AcDbCircle
 10
21.05
 20
-3.05
 30
0.0
 40
0.25
  0
CIRCLE
  5
1C0
330
1F
100
AcDbEntity
  8
Via_1_2_3
100
AcDbCircle
 10
21.05
 20
-1.55
 30
0.0
 40
0.25
  0
CIRCLE
  5
1C1
330
1F
100
AcDbEntity
  8
Via_1_2_3
100
AcDbCircle
 10
21.05
 20
32.95
 30
0.0
 40
0.25
  0
CIRCLE
  5
1C2
330
1F
100
AcDbEntity
  8
Via_1_2_3
100
AcDbCircle
 10
21.05
 20
34.45
 30
0.0
 40
0.25
  0
CIRCLE
  5
1C3
330
1F
100
AcDbEntity
  8
Via_1_2_3
100
AcDbCircle
 10
21.3
 20
14.95
 30
0.0
 40
0.15
  0
CIRCLE
  5
1C4
330
1F
100
AcDbEntity
  8
Via_1_2_3
100
AcDbCircle
 10
21.3
 20
23.45
 30
0.0
 40
0.15
  0
CIRCLE
  5
1C5
330
1F
100
AcDbEntity
  8
Via_1_2_3
100
AcDbCircle
 10
21.368
 20
25.4275
 30
0.0
 40
0.15
  0
CIRCLE
  5
1C6
330
1F
100
AcDbEntity
  8
Via_1_2_3
100
AcDbCircle
 10
21.5255
 20
7.019
 30
0.0
 40
0.15
  0
CIRCLE
  5
1C7
330
1F
100
AcDbEntity
  8
Via_1_2_3
100
AcDbCircle
 10
22.3
 20
11.95
 30
0.0
 40
0.15
  0
CIRCLE
  5
1C8
330
1F
100
AcDbEntity
  8
Via_1_2_3
100
AcDbCircle
 10
22.3
 20
12.95
 30
0.0
 40
0.15
  0
CIRCLE
  5
1C9
330
1F
100
AcDbEntity
  8
Via_1_2_3
100
AcDbCircle
 10
22.3
 20
13.95
 30
0.0
 40
0.15
  0
CIRCLE
  5
1CA
330
1F
100
AcDbEntity
  8
Via_1_2_3
100
AcDbCircle
 10
22.3
 20
14.95
 30
0.0
 40
0.15
  0
CIRCLE
  5
1CB
330
1F
100
AcDbEntity
  8
Via_1_2_3
100
AcDbCircle
 10
22.3
 20
20.45
 30
0.0
 40
0.15
  0
CIRCLE
  5
1CC
330
1F
100
AcDbEntity
  8
Via_1_2_3
100
AcDbCircle
 10
22.3
 20
21.45
 30
0.0
 40
0.15
  0
CIRCLE
  5
1CD
330
1F
100
AcDbEntity
  8
Via_1_2_3
100
AcDbCircle
 10
22.3
 20
22.45
 30
0.0
 40
0.15
  0
CIRCLE
  5
1CE
330
1F
100
AcDbEntity
  8
Via_1_2_3
100
AcDbCircle
 10
22.3
 20
23.45
 30
0.0
 40
0.15
  0
CIRCLE
  5
1CF
330
1F
100
AcDbEntity
  8
Via_1_2_3
100
AcDbCircle
 10
22.368
 20
25.4275
 30
0.0
 40
0.15
  0
CIRCLE
  5
1D0
330
1F
100
AcDbEntity
  8
Via_1_2_3
100
AcDbCircle
 10
22.5255
 20
7.019
 30
0.0
 40
0.15
  0
CIRCLE
  5
1D1
330
1F
100
AcDbEntity
  8
Via_1_2_3
100
AcDbCircle
 10
22.55
 20
-3.05
 30
0.0
 40
0.25
  0
CIRCLE
  5
1D2
330
1F
100
AcDbEntity
  8
Via_1_2_3
100
AcDbCircle
 10
22.55
 20
-1.55
 30
0.0
 40
0.25
  0
CIRCLE
  5
1D3
330
1F
100
AcDbEntity
  8
Via_1_2_3
100
AcDbCircle
 10
22.55
 20
32.95
 30
0.0
 40
0.25
  0
CIRCLE
  5
1D4
330
1F
100
AcDbEntity
  8
Via_1_2_3
100
AcDbCircle
 10
22.55
 20
34.45
 30
0.0
 40
0.25
  0
CIRCLE
  5
1D5
330
1F
100
AcDbEntity
  8
Via_1_2_3
100
AcDbCircle
 10
23.368
 20
25.4275
 30
0.0
 40
0.15
  0
CIRCLE
  5
1D6
330
1F
100
AcDbEntity
  8
Via_1_2_3
100
AcDbCircle
 10
23.485
 20
8.1395
 30
0.0
 40
0.15
  0
CIRCLE
  5
1D7
330
1F
100
AcDbEntity
  8
Via_1_2_3
100
AcDbCircle
 10
23.5255
 20
7.019
 30
0.0
 40
0.15
  0
CIRCLE
  5
1D8
330
1F
100
AcDbEntity
  8
Via_1_2_3
100
AcDbCircle
 10
24.05
 20
-3.05
 30
0.0
 40
0.25
  0
CIRCLE
  5
1D9
330
1F
100
AcDbEntity
  8
Via_1_2_3
100
AcDbCircle
 10
24.05
 20
-1.55
 30
0.0
 40
0.25
  0
CIRCLE
  5
1DA
330
1F
100
AcDbEntity
  8
Via_1_2_3
100
AcDbCircle
 10
24.05
 20
32.95
 30
0.0
 40
0.25
  0
CIRCLE
  5
1DB
330
1F
100
AcDbEntity
  8
Via_1_2_3
100
AcDbCircle
 10
24.05
 20
34.45
 30
0.0
 40
0.25
  0
CIRCLE
  5
1DC
330
1F
100
AcDbEntity
  8
Via_1_2_3
100
AcDbCircle
 10
24.368
 20
25.4275
 30
0.0
 40
0.15
  0
CIRCLE
  5
1DD
330
1F
100
AcDbEntity
  8
Via_1_2_3
100
AcDbCircle
 10
24.485
 20
8.1395
 30
0.0
 40
0.15
  0
CIRCLE
  5
1DE
330
1F
100
AcDbEntity
  8
Via_1_2_3
100
AcDbCircle
 10
24.66
 20
28.0
 30
0.0
 40
0.5
  0
CIRCLE
  5
1DF
330
1F
100
AcDbEntity
  8
Via_1_2_3
100
AcDbCircle
 10
25.368
 20
25.4275
 30
0.0
 40
0.15
  0
CIRCLE
  5
1E0
330
1F
100
AcDbEntity
  8
Via_1_2_3
100
AcDbCircle
 10
25.485
 20
8.1395
 30
0.0
 40
0.15
  0
CIRCLE
  5
1E1
330
1F
100
AcDbEntity
  8
Via_1_2_3
100
AcDbCircle
 10
25.55
 20
-3.05
 30
0.0
 40
0.25
  0
CIRCLE
  5
1E2
330
1F
100
AcDbEntity
  8
Via_1_2_3
100
AcDbCircle
 10
25.55
 20
-1.55
 30
0.0
 40
0.25
  0
CIRCLE
  5
1E3
330
1F
100
AcDbEntity
  8
Via_1_2_3
100
AcDbCircle
 10
25.55
 20
32.95
 30
0.0
 40
0.25
  0
CIRCLE
  5
1E4
330
1F
100
AcDbEntity
  8
Via_1_2_3
100
AcDbCircle
 10
25.55
 20
34.45
 30
0.0
 40
0.25
  0
CIRCLE
  5
1E5
330
1F
100
AcDbEntity
  8
Via_1_2_3
100
AcDbCircle
 10
26.192
 20
8.846
 30
0.0
 40
0.15
  0
CIRCLE
  5
1E6
330
1F
100
AcDbEntity
  8
Via_1_2_3
100
AcDbCircle
 10
26.8995
 20
9.553
 30
0.0
 40
0.15
  0
CIRCLE
  5
1E7
330
1F
100
AcDbEntity
  8
Via_1_2_3
100
AcDbCircle
 10
27.05
 20
-3.05
 30
0.0
 40
0.25
  0
CIRCLE
  5
1E8
330
1F
100
AcDbEntity
  8
Via_1_2_3
100
AcDbCircle
 10
27.05
 20
-1.55
 30
0.0
 40
0.25
  0
CIRCLE
  5
1E9
330
1F
100
AcDbEntity
  8
Via_1_2_3
100
AcDbCircle
 10
27.05
 20
32.95
 30
0.0
 40
0.25
  0
CIRCLE
  5
1EA
330
1F
100
AcDbEntity
  8
Via_1_2_3
100
AcDbCircle
 10
27.05
 20
34.45
 30
0.0
 40
0.25
  0
CIRCLE
  5
1EB
330
1F
100
AcDbEntity
  8
Via_1_2_3
100
AcDbCircle
 10
27.2
 20
28.0
 30
0.0
 40
0.5
  0
CIRCLE
  5
1EC
330
1F
100
AcDbEntity
  8
Via_1_2_3
100
AcDbCircle
 10
27.6065
 20
10.26
 30
0.0
 40
0.15
  0
CIRCLE
  5
1ED
330
1F
100
AcDbEntity
  8
Via_1_2_3
100
AcDbCircle
 10
28.5245
 20
10.735
 30
0.0
 40
0.15
  0
CIRCLE
  5
1EE
330
1F
100
AcDbEntity
  8
Via_1_2_3
100
AcDbCircle
 10
28.55
 20
-3.05
 30
0.0
 40
0.25
  0
CIRCLE
  5
1EF
330
1F
100
AcDbEntity
  8
Via_1_2_3
100
AcDbCircle
 10
28.55
 20
-1.55
 30
0.0
 40
0.25
  0
CIRCLE
  5
1F0
330
1F
100
AcDbEntity
  8
Via_1_2_3
100
AcDbCircle
 10
28.55
 20
32.95
 30
0.0
 40
0.25
  0
CIRCLE
  5
1F1
330
1F
100
AcDbEntity
  8
Via_1_2_3
100
AcDbCircle
 10
28.55
 20
34.45
 30
0.0
 40
0.25
  0
CIRCLE
  5
1F2
330
1F
100
AcDbEntity
  8
Via_1_2_3
100
AcDbCircle
 10
29.0245
 20
17.685
 30
0.0
 40
0.15
  0
CIRCLE
  5
1F3
330
1F
100
AcDbEntity
  8
Via_1_2_3
100
AcDbCircle
 10
29.0245
 20
18.685
 30
0.0
 40
0.15
  0
CIRCLE
  5
1F4
330
1F
100
AcDbEntity
  8
Via_1_2_3
100
AcDbCircle
 10
29.0245
 20
19.685
 30
0.0
 40
0.15
  0
CIRCLE
  5
1F5
330
1F
100
AcDbEntity
  8
Via_1_2_3
100
AcDbCircle
 10
29.0245
 20
20.685
 30
0.0
 40
0.15
  0
CIRCLE
  5
1F6
330
1F
100
AcDbEntity
  8
Via_1_2_3
100
AcDbCircle
 10
29.0245
 20
21.685
 30
0.0
 40
0.15
  0
CIRCLE
  5
1F7
330
1F
100
AcDbEntity
  8
Via_1_2_3
100
AcDbCircle
 10
29.0245
 20
22.685
 30
0.0
 40
0.15
  0
CIRCLE
  5
1F8
330
1F
100
AcDbEntity
  8
Via_1_2_3
100
AcDbCircle
 10
29.0245
 20
23.685
 30
0.0
 40
0.15
  0
CIRCLE
  5
1F9
330
1F
100
AcDbEntity
  8
Via_1_2_3
100
AcDbCircle
 10
29.0245
 20
24.685
 30
0.0
 40
0.15
  0
CIRCLE
  5
1FA
330
1F
100
AcDbEntity
  8
Via_1_2_3
100
AcDbCircle
 10
29.0245
 20
25.685
 30
0.0
 40
0.15
  0
CIRCLE
  5
1FB
330
1F
100
AcDbEntity
  8
Via_1_2_3
100
AcDbCircle
 10
29.5245
 20
10.735
 30
0.0
 40
0.15
  0
CIRCLE
  5
1FC
330
1F
100
AcDbEntity
  8
Via_1_2_3
100
AcDbCircle
 10
30.0245
 20
17.685
 30
0.0
 40
0.15
  0
CIRCLE
  5
1FD
330
1F
100
AcDbEntity
  8
Via_1_2_3
100
AcDbCircle
 10
29.74
 20
28.0
 30
0.0
 40
0.5
  0
CIRCLE
  5
1FE
330
1F
100
AcDbEntity
  8
Via_1_2_3
100
AcDbCircle
 10
30.05
 20
-3.05
 30
0.0
 40
0.25
  0
CIRCLE
  5
1FF
330
1F
100
AcDbEntity
  8
Via_1_2_3
100
AcDbCircle
 10
30.05
 20
-1.55
 30
0.0
 40
0.25
  0
CIRCLE
  5
200
330
1F
100
AcDbEntity
  8
Via_1_2_3
100
AcDbCircle
 10
30.05
 20
32.95
 30
0.0
 40
0.25
  0
CIRCLE
  5
201
330
1F
100
AcDbEntity
  8
Via_1_2_3
100
AcDbCircle
 10
30.05
 20
34.45
 30
0.0
 40
0.25
  0
CIRCLE
  5
202
330
1F
100
AcDbEntity
  8
Via_1_2_3
100
AcDbCircle
 10
30.5245
 20
10.735
 30
0.0
 40
0.15
  0
CIRCLE
  5
203
330
1F
100
AcDbEntity
  8
Via_1_2_3
100
AcDbCircle
 10
31.0245
 20
17.685
 30
0.0
 40
0.15
  0
CIRCLE
  5
204
330
1F
100
AcDbEntity
  8
Via_1_2_3
100
AcDbCircle
 10
31.5245
 20
10.735
 30
0.0
 40
0.15
  0
CIRCLE
  5
205
330
1F
100
AcDbEntity
  8
Via_1_2_3
100
AcDbCircle
 10
31.55
 20
-3.05
 30
0.0
 40
0.25
  0
CIRCLE
  5
206
330
1F
100
AcDbEntity
  8
Via_1_2_3
100
AcDbCircle
 10
31.55
 20
-1.55
 30
0.0
 40
0.25
  0
CIRCLE
  5
207
330
1F
100
AcDbEntity
  8
Via_1_2_3
100
AcDbCircle
 10
31.55
 20
32.95
 30
0.0
 40
0.25
  0
CIRCLE
  5
208
330
1F
100
AcDbEntity
  8
Via_1_2_3
100
AcDbCircle
 10
31.55
 20
34.45
 30
0.0
 40
0.25
  0
CIRCLE
  5
209
330
1F
100
AcDbEntity
  8
Via_1_2_3
100
AcDbCircle
 10
32.0245
 20
17.685
 30
0.0
 40
0.15
  0
CIRCLE
  5
20A
330
1F
100
AcDbEntity
  8
Via_1_2_3
100
AcDbCircle
 10
32.5245
 20
10.735
 30
0.0
 40
0.15
  0
CIRCLE
  5
20B
330
1F
100
AcDbEntity
  8
Via_1_2_3
100
AcDbCircle
 10
33.0245
 20
17.685
 30
0.0
 40
0.15
  0
CIRCLE
  5
20C
330
1F
100
AcDbEntity
  8
Via_1_2_3
100
AcDbCircle
 10
33.05
 20
-3.05
 30
0.0
 40
0.25
  0
CIRCLE
  5
20D
330
1F
100
AcDbEntity
  8
Via_1_2_3
100
AcDbCircle
 10
33.05
 20
-1.55
 30
0.0
 40
0.25
  0
CIRCLE
  5
20E
330
1F
100
AcDbEntity
  8
Via_1_2_3
100
AcDbCircle
 10
33.05
 20
32.95
 30
0.0
 40
0.25
  0
CIRCLE
  5
20F
330
1F
100
AcDbEntity
  8
Via_1_2_3
100
AcDbCircle
 10
33.05
 20
34.45
 30
0.0
 40
0.25
  0
CIRCLE
  5
210
330
1F
100
AcDbEntity
  8
Via_1_2_3
100
AcDbCircle
 10
33.5245
 20
10.735
 30
0.0
 40
0.15
  0
CIRCLE
  5
211
330
1F
100
AcDbEntity
  8
Via_1_2_3
100
AcDbCircle
 10
34.0245
 20
17.685
 30
0.0
 40
0.15
  0
CIRCLE
  5
212
330
1F
100
AcDbEntity
  8
Via_1_2_3
100
AcDbCircle
 10
34.5245
 20
10.735
 30
0.0
 40
0.15
  0
CIRCLE
  5
213
330
1F
100
AcDbEntity
  8
Via_1_2_3
100
AcDbCircle
 10
34.55
 20
-3.05
 30
0.0
 40
0.25
  0
CIRCLE
  5
214
330
1F
100
AcDbEntity
  8
Via_1_2_3
100
AcDbCircle
 10
34.55
 20
-1.55
 30
0.0
 40
0.25
  0
CIRCLE
  5
215
330
1F
100
AcDbEntity
  8
Via_1_2_3
100
AcDbCircle
 10
34.55
 20
32.95
 30
0.0
 40
0.25
  0
CIRCLE
  5
216
330
1F
100
AcDbEntity
  8
Via_1_2_3
100
AcDbCircle
 10
34.55
 20
34.45
 30
0.0
 40
0.25
  0
CIRCLE
  5
217
330
1F
100
AcDbEntity
  8
Via_1_2_3
100
AcDbCircle
 10
35.0245
 20
17.685
 30
0.0
 40
0.15
  0
CIRCLE
  5
218
330
1F
100
AcDbEntity
  8
Via_1_2_3
100
AcDbCircle
 10
35.5245
 20
10.735
 30
0.0
 40
0.15
  0
CIRCLE
  5
219
330
1F
100
AcDbEntity
  8
Via_1_2_3
100
AcDbCircle
 10
36.0245
 20
17.685
 30
0.0
 40
0.15
  0
CIRCLE
  5
21A
330
1F
100
AcDbEntity
  8
Via_1_2_3
100
AcDbCircle
 10
36.05
 20
-3.05
 30
0.0
 40
0.25
  0
CIRCLE
  5
21B
330
1F
100
AcDbEntity
  8
Via_1_2_3
100
AcDbCircle
 10
36.05
 20
-1.55
 30
0.0
 40
0.25
  0
CIRCLE
  5
21C
330
1F
100
AcDbEntity
  8
Via_1_2_3
100
AcDbCircle
 10
36.05
 20
32.95
 30
0.0
 40
0.25
  0
CIRCLE
  5
21D
330
1F
100
AcDbEntity
  8
Via_1_2_3
100
AcDbCircle
 10
36.05
 20
34.45
 30
0.0
 40
0.25
  0
CIRCLE
  5
21E
330
1F
100
AcDbEntity
  8
Via_1_2_3
100
AcDbCircle
 10
36.5245
 20
10.735
 30
0.0
 40
0.15
  0
CIRCLE
  5
21F
330
1F
100
AcDbEntity
  8
Via_1_2_3
100
AcDbCircle
 10
37.0245
 20
17.685
 30
0.0
 40
0.15
  0
CIRCLE
  5
220
330
1F
100
AcDbEntity
  8
Via_1_2_3
100
AcDbCircle
 10
37.5245
 20
10.735
 30
0.0
 40
0.15
  0
CIRCLE
  5
221
330
1F
100
AcDbEntity
  8
Via_1_2_3
100
AcDbCircle
 10
37.55
 20
-3.05
 30
0.0
 40
0.25
  0
CIRCLE
  5
222
330
1F
100
AcDbEntity
  8
Via_1_2_3
100
AcDbCircle
 10
37.55
 20
-1.55
 30
0.0
 40
0.25
  0
CIRCLE
  5
223
330
1F
100
AcDbEntity
  8
Via_1_2_3
100
AcDbCircle
 10
37.55
 20
32.95
 30
0.0
 40
0.25
  0
CIRCLE
  5
224
330
1F
100
AcDbEntity
  8
Via_1_2_3
100
AcDbCircle
 10
37.55
 20
34.45
 30
0.0
 40
0.25
  0
CIRCLE
  5
225
330
1F
100
AcDbEntity
  8
Via_1_2_3
100
AcDbCircle
 10
38.0245
 20
17.685
 30
0.0
 40
0.15
  0
CIRCLE
  5
226
330
1F
100
AcDbEntity
  8
Via_1_2_3
100
AcDbCircle
 10
38.5245
 20
10.735
 30
0.0
 40
0.15
  0
CIRCLE
  5
227
330
1F
100
AcDbEntity
  8
Via_1_2_3
100
AcDbCircle
 10
38.5245
 20
11.735
 30
0.0
 40
0.15
  0
CIRCLE
  5
228
330
1F
100
AcDbEntity
  8
Via_1_2_3
100
AcDbCircle
 10
38.8245
 20
12.735
 30
0.0
 40
0.15
  0
CIRCLE
  5
229
330
1F
100
AcDbEntity
  8
Via_1_2_3
100
AcDbCircle
 10
39.0245
 20
17.685
 30
0.0
 40
0.15
  0
CIRCLE
  5
22A
330
1F
100
AcDbEntity
  8
Via_1_2_3
100
AcDbCircle
 10
39.05
 20
-3.05
 30
0.0
 40
0.25
  0
CIRCLE
  5
22B
330
1F
100
AcDbEntity
  8
Via_1_2_3
100
AcDbCircle
 10
39.05
 20
-1.55
 30
0.0
 40
0.25
  0
CIRCLE
  5
22C
330
1F
100
AcDbEntity
  8
Via_1_2_3
100
AcDbCircle
 10
39.05
 20
32.95
 30
0.0
 40
0.25
  0
CIRCLE
  5
22D
330
1F
100
AcDbEntity
  8
Via_1_2_3
100
AcDbCircle
 10
39.05
 20
34.45
 30
0.0
 40
0.25
  0
CIRCLE
  5
22E
330
1F
100
AcDbEntity
  8
Via_1_2_3
100
AcDbCircle
 10
39.5245
 20
10.735
 30
0.0
 40
0.15
  0
CIRCLE
  5
22F
330
1F
100
AcDbEntity
  8
Via_1_2_3
100
AcDbCircle
 10
39.5245
 20
11.735
 30
0.0
 40
0.15
  0
CIRCLE
  5
230
330
1F
100
AcDbEntity
  8
Via_1_2_3
100
AcDbCircle
 10
39.5245
 20
12.735
 30
0.0
 40
0.15
  0
CIRCLE
  5
231
330
1F
100
AcDbEntity
  8
Via_1_2_3
100
AcDbCircle
 10
39.5245
 20
13.735
 30
0.0
 40
0.15
  0
CIRCLE
  5
232
330
1F
100
AcDbEntity
  8
Via_1_2_3
100
AcDbCircle
 10
40.0245
 20
17.685
 30
0.0
 40
0.15
  0
CIRCLE
  5
233
330
1F
100
AcDbEntity
  8
Via_1_2_3
100
AcDbCircle
 10
40.5245
 20
13.735
 30
0.0
 40
0.15
  0
CIRCLE
  5
234
330
1F
100
AcDbEntity
  8
Via_1_2_3
100
AcDbCircle
 10
40.55
 20
-3.05
 30
0.0
 40
0.25
  0
CIRCLE
  5
235
330
1F
100
AcDbEntity
  8
Via_1_2_3
100
AcDbCircle
 10
40.55
 20
-1.55
 30
0.0
 40
0.25
  0
CIRCLE
  5
236
330
1F
100
AcDbEntity
  8
Via_1_2_3
100
AcDbCircle
 10
40.55
 20
32.95
 30
0.0
 40
0.25
  0
CIRCLE
  5
237
330
1F
100
AcDbEntity
  8
Via_1_2_3
100
AcDbCircle
 10
40.55
 20
34.45
 30
0.0
 40
0.25
  0
CIRCLE
  5
238
330
1F
100
AcDbEntity
  8
Via_1_2_3
100
AcDbCircle
 10
41.0245
 20
17.685
 30
0.0
 40
0.15
  0
CIRCLE
  5
239
330
1F
100
AcDbEntity
  8
Via_1_2_3
100
AcDbCircle
 10
41.5245
 20
13.735
 30
0.0
 40
0.15
  0
CIRCLE
  5
23A
330
1F
100
AcDbEntity
  8
Via_1_2_3
100
AcDbCircle
 10
42.0245
 20
17.685
 30
0.0
 40
0.15
  0
CIRCLE
  5
23B
330
1F
100
AcDbEntity
  8
Via_1_2_3
100
AcDbCircle
 10
42.05
 20
-3.05
 30
0.0
 40
0.25
  0
CIRCLE
  5
23C
330
1F
100
AcDbEntity
  8
Via_1_2_3
100
AcDbCircle
 10
42.05
 20
-1.55
 30
0.0
 40
0.25
  0
CIRCLE
  5
23D
330
1F
100
AcDbEntity
  8
Via_1_2_3
100
AcDbCircle
 10
42.05
 20
32.95
 30
0.0
 40
0.25
  0
CIRCLE
  5
23E
330
1F
100
AcDbEntity
  8
Via_1_2_3
100
AcDbCircle
 10
42.05
 20
34.45
 30
0.0
 40
0.25
  0
CIRCLE
  5
23F
330
1F
100
AcDbEntity
  8
Via_1_2_3
100
AcDbCircle
 10
42.5245
 20
13.735
 30
0.0
 40
0.15
  0
CIRCLE
  5
240
330
1F
100
AcDbEntity
  8
Via_1_2_3
100
AcDbCircle
 10
43.0245
 20
17.685
 30
0.0
 40
0.15
  0
CIRCLE
  5
241
330
1F
100
AcDbEntity
  8
Via_1_2_3
100
AcDbCircle
 10
43.5245
 20
13.735
 30
0.0
 40
0.15
  0
CIRCLE
  5
242
330
1F
100
AcDbEntity
  8
Via_1_2_3
100
AcDbCircle
 10
43.55
 20
-3.05
 30
0.0
 40
0.25
  0
CIRCLE
  5
243
330
1F
100
AcDbEntity
  8
Via_1_2_3
100
AcDbCircle
 10
43.55
 20
-1.55
 30
0.0
 40
0.25
  0
CIRCLE
  5
244
330
1F
100
AcDbEntity
  8
Via_1_2_3
100
AcDbCircle
 10
43.55
 20
32.95
 30
0.0
 40
0.25
  0
CIRCLE
  5
245
330
1F
100
AcDbEntity
  8
Via_1_2_3
100
AcDbCircle
 10
43.55
 20
34.45
 30
0.0
 40
0.25
  0
CIRCLE
  5
246
330
1F
100
AcDbEntity
  8
Via_1_2_3
100
AcDbCircle
 10
44.0245
 20
17.685
 30
0.0
 40
0.15
  0
CIRCLE
  5
247
330
1F
100
AcDbEntity
  8
Via_1_2_3
100
AcDbCircle
 10
44.5245
 20
13.735
 30
0.0
 40
0.15
  0
CIRCLE
  5
248
330
1F
100
AcDbEntity
  8
Via_1_2_3
100
AcDbCircle
 10
43.5
 20
11.0
 30
0.0
 40
1.2
  0
CIRCLE
  5
249
330
1F
100
AcDbEntity
  8
Via_1_2_3
100
AcDbCircle
 10
43.5
 20
20.4
 30
0.0
 40
1.2
  0
CIRCLE
  5
24A
330
1F
100
AcDbEntity
  8
Via_1_2_3
100
AcDbCircle
 10
45.0245
 20
17.685
 30
0.0
 40
0.15
  0
CIRCLE
  5
24B
330
1F
100
AcDbEntity
  8
Via_1_2_3
100
AcDbCircle
 10
45.05
 20
-3.05
 30
0.0
 40
0.25
  0
CIRCLE
  5
24C
330
1F
100
AcDbEntity
  8
Via_1_2_3
100
AcDbCircle
 10
45.05
 20
-1.55
 30
0.0
 40
0.25
  0
CIRCLE
  5
24D
330
1F
100
AcDbEntity
  8
Via_1_2_3
100
AcDbCircle
 10
45.05
 20
32.95
 30
0.0
 40
0.25
  0
CIRCLE
  5
24E
330
1F
100
AcDbEntity
  8
Via_1_2_3
100
AcDbCircle
 10
45.05
 20
34.45
 30
0.0
 40
0.25
  0
CIRCLE
  5
24F
330
1F
100
AcDbEntity
  8
Via_1_2_3
100
AcDbCircle
 10
45.5245
 20
13.735
 30
0.0
 40
0.15
  0
CIRCLE
  5
250
330
1F
100
AcDbEntity
  8
Via_1_2_3
100
AcDbCircle
 10
46.0245
 20
17.685
 30
0.0
 40
0.15
  0
CIRCLE
  5
251
330
1F
100
AcDbEntity
  8
Via_1_2_3
100
AcDbCircle
 10
46.5245
 20
13.735
 30
0.0
 40
0.15
  0
CIRCLE
  5
252
330
1F
100
AcDbEntity
  8
Via_1_2_3
100
AcDbCircle
 10
46.55
 20
-3.05
 30
0.0
 40
0.25
  0
CIRCLE
  5
253
330
1F
100
AcDbEntity
  8
Via_1_2_3
100
AcDbCircle
 10
46.55
 20
-1.55
 30
0.0
 40
0.25
  0
CIRCLE
  5
254
330
1F
100
AcDbEntity
  8
Via_1_2_3
100
AcDbCircle
 10
46.55
 20
-0.05
 30
0.0
 40
0.25
  0
CIRCLE
  5
255
330
1F
100
AcDbEntity
  8
Via_1_2_3
100
AcDbCircle
 10
46.55
 20
1.45
 30
0.0
 40
0.25
  0
CIRCLE
  5
256
330
1F
100
AcDbEntity
  8
Via_1_2_3
100
AcDbCircle
 10
46.55
 20
2.95
 30
0.0
 40
0.25
  0
CIRCLE
  5
257
330
1F
100
AcDbEntity
  8
Via_1_2_3
100
AcDbCircle
 10
46.55
 20
4.45
 30
0.0
 40
0.25
  0
CIRCLE
  5
258
330
1F
100
AcDbEntity
  8
Via_1_2_3
100
AcDbCircle
 10
46.55
 20
5.95
 30
0.0
 40
0.25
  0
CIRCLE
  5
259
330
1F
100
AcDbEntity
  8
Via_1_2_3
100
AcDbCircle
 10
46.55
 20
7.45
 30
0.0
 40
0.25
  0
CIRCLE
  5
25A
330
1F
100
AcDbEntity
  8
Via_1_2_3
100
AcDbCircle
 10
46.55
 20
8.950000000000001
 30
0.0
 40
0.25
  0
CIRCLE
  5
25B
330
1F
100
AcDbEntity
  8
Via_1_2_3
100
AcDbCircle
 10
46.55
 20
10.45
 30
0.0
 40
0.25
  0
CIRCLE
  5
25C
330
1F
100
AcDbEntity
  8
Via_1_2_3
100
AcDbCircle
 10
46.55
 20
11.95
 30
0.0
 40
0.25
  0
CIRCLE
  5
25D
330
1F
100
AcDbEntity
  8
Via_1_2_3
100
AcDbCircle
 10
46.55
 20
19.45
 30
0.0
 40
0.25
  0
CIRCLE
  5
25E
330
1F
100
AcDbEntity
  8
Via_1_2_3
100
AcDbCircle
 10
46.55
 20
20.95
 30
0.0
 40
0.25
  0
CIRCLE
  5
25F
330
1F
100
AcDbEntity
  8
Via_1_2_3
100
AcDbCircle
 10
46.55
 20
22.45
 30
0.0
 40
0.25
  0
CIRCLE
  5
260
330
1F
100
AcDbEntity
  8
Via_1_2_3
100
AcDbCircle
 10
46.55
 20
23.95
 30
0.0
 40
0.25
  0
CIRCLE
  5
261
330
1F
100
AcDbEntity
  8
Via_1_2_3
100
AcDbCircle
 10
46.55
 20
25.45
 30
0.0
 40
0.25
  0
CIRCLE
  5
262
330
1F
100
AcDbEntity
  8
Via_1_2_3
100
AcDbCircle
 10
46.55
 20
26.95
 30
0.0
 40
0.25
  0
CIRCLE
  5
263
330
1F
100
AcDbEntity
  8
Via_1_2_3
100
AcDbCircle
 10
46.55
 20
28.45
 30
0.0
 40
0.25
  0
CIRCLE
  5
264
330
1F
100
AcDbEntity
  8
Via_1_2_3
100
AcDbCircle
 10
46.55
 20
29.95
 30
0.0
 40
0.25
  0
CIRCLE
  5
265
330
1F
100
AcDbEntity
  8
Via_1_2_3
100
AcDbCircle
 10
46.55
 20
31.45
 30
0.0
 40
0.25
  0
CIRCLE
  5
266
330
1F
100
AcDbEntity
  8
Via_1_2_3
100
AcDbCircle
 10
46.55
 20
32.95
 30
0.0
 40
0.25
  0
CIRCLE
  5
267
330
1F
100
AcDbEntity
  8
Via_1_2_3
100
AcDbCircle
 10
46.55
 20
34.45
 30
0.0
 40
0.25
  0
CIRCLE
  5
268
330
1F
100
AcDbEntity
  8
Via_1_2_3
100
AcDbCircle
 10
47.0245
 20
17.685
 30
0.0
 40
0.15
  0
CIRCLE
  5
269
330
1F
100
AcDbEntity
  8
Via_1_2_3
100
AcDbCircle
 10
47.5245
 20
13.735
 30
0.0
 40
0.15
  0
CIRCLE
  5
26A
330
1F
100
AcDbEntity
  8
Via_1_2_3
100
AcDbCircle
 10
48.0245
 20
17.685
 30
0.0
 40
0.15
  0
CIRCLE
  5
26B
330
1F
100
AcDbEntity
  8
Via_1_2_3
100
AcDbCircle
 10
48.05
 20
-3.05
 30
0.0
 40
0.25
  0
CIRCLE
  5
26C
330
1F
100
AcDbEntity
  8
Via_1_2_3
100
AcDbCircle
 10
48.05
 20
-1.55
 30
0.0
 40
0.25
  0
CIRCLE
  5
26D
330
1F
100
AcDbEntity
  8
Via_1_2_3
100
AcDbCircle
 10
48.05
 20
-0.05
 30
0.0
 40
0.25
  0
CIRCLE
  5
26E
330
1F
100
AcDbEntity
  8
Via_1_2_3
100
AcDbCircle
 10
48.05
 20
1.45
 30
0.0
 40
0.25
  0
CIRCLE
  5
26F
330
1F
100
AcDbEntity
  8
Via_1_2_3
100
AcDbCircle
 10
48.05
 20
2.95
 30
0.0
 40
0.25
  0
CIRCLE
  5
270
330
1F
100
AcDbEntity
  8
Via_1_2_3
100
AcDbCircle
 10
48.05
 20
4.45
 30
0.0
 40
0.25
  0
CIRCLE
  5
271
330
1F
100
AcDbEntity
  8
Via_1_2_3
100
AcDbCircle
 10
48.05
 20
5.95
 30
0.0
 40
0.25
  0
CIRCLE
  5
272
330
1F
100
AcDbEntity
  8
Via_1_2_3
100
AcDbCircle
 10
48.05
 20
7.45
 30
0.0
 40
0.25
  0
CIRCLE
  5
273
330
1F
100
AcDbEntity
  8
Via_1_2_3
100
AcDbCircle
 10
48.05
 20
8.950000000000001
 30
0.0
 40
0.25
  0
CIRCLE
  5
274
330
1F
100
AcDbEntity
  8
Via_1_2_3
100
AcDbCircle
 10
48.05
 20
10.45
 30
0.0
 40
0.25
  0
CIRCLE
  5
275
330
1F
100
AcDbEntity
  8
Via_1_2_3
100
AcDbCircle
 10
48.05
 20
11.95
 30
0.0
 40
0.25
  0
CIRCLE
  5
276
330
1F
100
AcDbEntity
  8
Via_1_2_3
100
AcDbCircle
 10
48.05
 20
19.45
 30
0.0
 40
0.25
  0
CIRCLE
  5
277
330
1F
100
AcDbEntity
  8
Via_1_2_3
100
AcDbCircle
 10
48.05
 20
20.95
 30
0.0
 40
0.25
  0
CIRCLE
  5
278
330
1F
100
AcDbEntity
  8
Via_1_2_3
100
AcDbCircle
 10
48.05
 20
22.45
 30
0.0
 40
0.25
  0
CIRCLE
  5
279
330
1F
100
AcDbEntity
  8
Via_1_2_3
100
AcDbCircle
 10
48.05
 20
23.95
 30
0.0
 40
0.25
  0
CIRCLE
  5
27A
330
1F
100
AcDbEntity
  8
Via_1_2_3
100
AcDbCircle
 10
48.05
 20
25.45
 30
0.0
 40
0.25
  0
CIRCLE
  5
27B
330
1F
100
AcDbEntity
  8
Via_1_2_3
100
AcDbCircle
 10
48.05
 20
26.95
 30
0.0
 40
0.25
  0
CIRCLE
  5
27C
330
1F
100
AcDbEntity
  8
Via_1_2_3
100
AcDbCircle
 10
48.05
 20
28.45
 30
0.0
 40
0.25
  0
CIRCLE
  5
27D
330
1F
100
AcDbEntity
  8
Via_1_2_3
100
AcDbCircle
 10
48.05
 20
29.95
 30
0.0
 40
0.25
  0
CIRCLE
  5
27E
330
1F
100
AcDbEntity
  8
Via_1_2_3
100
AcDbCircle
 10
48.05
 20
31.45
 30
0.0
 40
0.25
  0
CIRCLE
  5
27F
330
1F
100
AcDbEntity
  8
Via_1_2_3
100
AcDbCircle
 10
48.05
 20
32.95
 30
0.0
 40
0.25
  0
CIRCLE
  5
280
330
1F
100
AcDbEntity
  8
Via_1_2_3
100
AcDbCircle
 10
48.05
 20
34.45
 30
0.0
 40
0.25
  0
CIRCLE
  5
281
330
1F
100
AcDbEntity
  8
Via_1_2_3
100
AcDbCircle
 10
48.5245
 20
13.735
 30
0.0
 40
0.15
  0
LWPOLYLINE
  5
282
330
1F
100
AcDbEntity
  8
Silk_Screen
100
AcDbPolyline
 90
       45
 70
     1
 43
0.0
 10
-3.04
 20
1.125
 10
-3.04
 20
1.41
 10
-2.8225
 20
1.41
 10
-2.7925
 20
1.395
 10
-2.7625
 20
1.335
 10
-2.755
 20
1.2225
 10
-2.7475
 20
1.185
 10
-2.725
 20
1.125
 10
-2.5675
 20
1.125
 10
-2.59
 20
1.1625
 10
-2.605
 20
1.2225
 10
-2.6125
 20
1.335
 10
-2.62
 20
1.3725
 10
-2.635
 20
1.4025
 10
-2.6575
 20
1.4325
 10
-2.68
 20
1.455
 10
-2.7175
 20
1.4775
 10
-2.68
 20
1.5
 10
-2.6425
 20
1.53
 10
-2.62
 20
1.5675
 10
-2.605
 20
1.605
 10
-2.605
 20
1.7025
 10
-2.6275
 20
1.74
 10
-2.65
 20
1.785
 10
-2.68
 20
1.815
 10
-2.7175
 20
1.8375
 10
-2.7625
 20
1.86
 10
-2.8225
 20
1.87
 10
-2.8525
 20
1.875
 10
-3.04
 20
1.875
 10
-3.04
 20
1.7475
 10
-2.8225
 20
1.7475
 10
-2.7925
 20
1.725
 10
-2.7775
 20
1.7025
 10
-2.7625
 20
1.6725
 10
-2.7625
 20
1.6125
 10
-2.7775
 20
1.5825
 10
-2.7925
 20
1.56
 10
-2.8225
 20
1.545
 10
-2.8525
 20
1.5375
 10
-3.04
 20
1.5375
 10
-3.04
 20
1.7475
 10
-3.04
 20
1.875
 10
-3.19
 20
1.875
 10
-3.19
 20
1.125
  0
LWPOLYLINE
  5
284
330
1F
100
AcDbEntity
  8
Silk_Screen
100
AcDbPolyline
 90
       10
 70
     1
 43
0.0
 10
-2.44
 20
1.125
 10
-2.44
 20
1.875
 10
-1.8175
 20
1.875
 10
-1.8175
 20
1.7475
 10
-2.29
 20
1.7475
 10
-2.29
 20
1.56
 10
-1.8775
 20
1.56
 10
-1.8775
 20
1.44
 10
-2.29
 20
1.44
 10
-2.29
 20
1.125
  0
LWPOLYLINE
  5
285
330
1F
100
AcDbEntity
  8
Silk_Screen
100
AcDbPolyline
 90
       12
 70
     1
 43
0.0
 10
-1.5775
 20
1.125
 10
-1.5775
 20
1.2375
 10
-1.45
 20
1.2375
 10
-1.45
 20
1.7625
 10
-1.5775
 20
1.7625
 10
-1.5775
 20
1.875
 10
-1.18
 20
1.875
 10
-1.18
 20
1.7625
 10
-1.3
 20
1.7625
 10
-1.3
 20
1.2375
 10
-1.18
 20
1.2375
 10
-1.18
 20
1.125
  0
LWPOLYLINE
  5
286
330
1F
100
AcDbEntity
  8
Silk_Screen
100
AcDbPolyline
 90
       10
 70
     1
 43
0.0
 10
-0.9400000000000001
 20
1.125
 10
-0.9400000000000001
 20
1.875
 10
-0.79
 20
1.875
 10
-0.4525
 20
1.35
 10
-0.4525
 20
1.875
 10
-0.3175
 20
1.875
 10
-0.3175
 20
1.125
 10
-0.4525
 20
1.125
 10
-0.805
 20
1.65
 10
-0.805
 20
1.125
  0
LWPOLYLINE
  5
287
330
1F
100
AcDbEntity
  8
Silk_Screen
100
AcDbPolyline
 90
       36
 70
     1
 43
0.0
 10
2.865
 20
25.09
 10
2.865
 20
25.275
 10
3.08
 20
25.275
 10
3.105
 20
25.285
 10
3.13
 20
25.305
 10
3.15
 20
25.325
 10
3.165
 20
25.345
 10
3.175
 20
25.375
 10
3.18
 20
25.4
 10
3.185
 20
25.43
 10
3.175
 20
25.49
 10
3.165
 20
25.515
 10
3.15
 20
25.54
 10
3.13
 20
25.56
 10
3.105
 20
25.575
 10
3.08
 20
25.585
 10
3.05
 20
25.59
 10
3.04
 20
25.59
 10
2.865
 20
25.59
 10
2.865
 20
25.505
 10
3.04
 20
25.505
 10
3.055
 20
25.495
 10
3.07
 20
25.48
 10
3.08
 20
25.46
 10
3.085
 20
25.44
 10
3.085
 20
25.42
 10
3.08
 20
25.4
 10
3.07
 20
25.385
 10
3.055
 20
25.37
 10
3.04
 20
25.36
 10
3.015
 20
25.355
 10
2.865
 20
25.355
 10
2.865
 20
25.505
 10
2.865
 20
25.59
 10
2.765
 20
25.59
 10
2.765
 20
25.09
  0
LWPOLYLINE
  5
288
330
1F
100
AcDbEntity
  8
Silk_Screen
100
AcDbPolyline
 90
       36
 70
     1
 43
0.0
 10
2.936
 20
26.82
 10
2.936
 20
27.0975
 10
3.2585
 20
27.0975
 10
3.296
 20
27.1125
 10
3.3335
 20
27.1425
 10
3.3635
 20
27.1725
 10
3.386
 20
27.2025
 10
3.401
 20
27.2475
 10
3.4085
 20
27.285
 10
3.416
 20
27.33
 10
3.401
 20
27.42
 10
3.386
 20
27.4575
 10
3.3635
 20
27.495
 10
3.3335
 20
27.525
 10
3.296
 20
27.5475
 10
3.2585
 20
27.5625
 10
3.2135
 20
27.57
 10
3.1985
 20
27.57
 10
2.936
 20
27.57
 10
2.936
 20
27.4425
 10
3.1985
 20
27.4425
 10
3.221
 20
27.4275
 10
3.2435
 20
27.405
 10
3.2585
 20
27.375
 10
3.266
 20
27.345
 10
3.266
 20
27.315
 10
3.2585
 20
27.285
 10
3.2435
 20
27.2625
 10
3.221
 20
27.24
 10
3.1985
 20
27.225
 10
3.161
 20
27.2175
 10
2.936
 20
27.2175
 10
2.936
 20
27.4425
 10
2.936
 20
27.57
 10
2.786
 20
27.57
 10
2.786
 20
26.82
  0
LWPOLYLINE
  5
289
330
1F
100
AcDbEntity
  8
Silk_Screen
100
AcDbPolyline
 90
        7
 70
     1
 43
0.0
 10
2.8235
 20
30.2925
 10
2.9735
 20
30.2925
 10
3.101
 20
29.895
 10
3.221
 20
30.2925
 10
3.371
 20
30.2925
 10
3.176
 20
29.745
 10
3.026
 20
29.745
  0
LWPOLYLINE
  5
28A
330
1F
100
AcDbEntity
  8
Silk_Screen
100
AcDbPolyline
 90
       45
 70
     1
 43
0.0
 10
2.865
 20
24.44
 10
2.865
 20
24.63
 10
3.01
 20
24.63
 10
3.03
 20
24.62
 10
3.05
 20
24.58
 10
3.055
 20
24.505
 10
3.06
 20
24.48
 10
3.075
 20
24.44
 10
3.18
 20
24.44
 10
3.165
 20
24.465
 10
3.155
 20
24.505
 10
3.15
 20
24.58
 10
3.145
 20
24.605
 10
3.135
 20
24.625
 10
3.12
 20
24.645
 10
3.105
 20
24.66
 10
3.08
 20
24.675
 10
3.105
 20
24.69
 10
3.13
 20
24.71
 10
3.145
 20
24.735
 10
3.155
 20
24.76
 10
3.155
 20
24.825
 10
3.14
 20
24.85
 10
3.125
 20
24.88
 10
3.105
 20
24.9
 10
3.08
 20
24.915
 10
3.05
 20
24.93
 10
3.01
 20
24.9365
 10
2.99
 20
24.94
 10
2.865
 20
24.94
 10
2.865
 20
24.855
 10
3.01
 20
24.855
 10
3.03
 20
24.84
 10
3.04
 20
24.825
 10
3.05
 20
24.805
 10
3.05
 20
24.765
 10
3.04
 20
24.745
 10
3.03
 20
24.73
 10
3.01
 20
24.72
 10
2.99
 20
24.715
 10
2.865
 20
24.715
 10
2.865
 20
24.855
 10
2.865
 20
24.94
 10
2.765
 20
24.94
 10
2.765
 20
24.44
  0
LWPOLYLINE
  5
28B
330
1F
100
AcDbEntity
  8
Silk_Screen
100
AcDbPolyline
 90
       10
 70
     1
 43
0.0
 10
3.265
 20
24.44
 10
3.265
 20
24.94
 10
3.68
 20
24.94
 10
3.68
 20
24.855
 10
3.365
 20
24.855
 10
3.365
 20
24.73
 10
3.64
 20
24.73
 10
3.64
 20
24.65
 10
3.365
 20
24.65
 10
3.365
 20
24.44
  0
LWPOLYLINE
  5
28C
330
1F
100
AcDbEntity
  8
Silk_Screen
100
AcDbPolyline
 90
       57
 70
     1
 43
0.0
 10
3.265
 20
25.3
 10
3.265
 20
25.38
 10
3.27
 20
25.415
 10
3.285
 20
25.455
 10
3.3
 20
25.49
 10
3.32
 20
25.52
 10
3.34
 20
25.545
 10
3.37
 20
25.57
 10
3.405
 20
25.585
 10
3.44
 20
25.595
 10
3.48
 20
25.6
 10
3.52
 20
25.595
 10
3.555
 20
25.585
 10
3.615
 20
25.545
 10
3.635
 20
25.52
 10
3.655
 20
25.49
 10
3.67
 20
25.455
 10
3.68
 20
25.425
 10
3.58
 20
25.425
 10
3.56
 20
25.475
 10
3.54
 20
25.495
 10
3.515
 20
25.51
 10
3.48
 20
25.515
 10
3.455
 20
25.51
 10
3.43
 20
25.5
 10
3.41
 20
25.485
 10
3.38
 20
25.435
 10
3.375
 20
25.405
 10
3.365
 20
25.375
 10
3.365
 20
25.305
 10
3.375
 20
25.275
 10
3.38
 20
25.245
 10
3.41
 20
25.195
 10
3.43
 20
25.18
 10
3.455
 20
25.17
 10
3.48
 20
25.165
 10
3.51
 20
25.17
 10
3.54
 20
25.185
 10
3.56
 20
25.205
 10
3.58
 20
25.255
 10
3.68
 20
25.255
 10
3.675
 20
25.22
 10
3.66
 20
25.19
 10
3.64
 20
25.16
 10
3.615
 20
25.13
 10
3.585
 20
25.11
 10
3.555
 20
25.095
 10
3.52
 20
25.09
 10
3.48
 20
25.085
 10
3.44
 20
25.09
 10
3.405
 20
25.095
 10
3.37
 20
25.11
 10
3.34
 20
25.135
 10
3.32
 20
25.16
 10
3.3
 20
25.19
 10
3.285
 20
25.225
 10
3.27
 20
25.265
  0
LWPOLYLINE
  5
28D
330
1F
100
AcDbEntity
  8
Silk_Screen
100
AcDbPolyline
 90
       13
 70
     1
 43
0.0
 10
3.2885
 20
28.77
 10
3.2885
 20
29.3925
 10
3.146
 20
28.8975
 10
3.0485
 20
28.8975
 10
2.8985
 20
29.3925
 10
2.8985
 20
28.77
 10
2.786
 20
28.77
 10
2.786
 20
29.52
 10
2.9735
 20
29.52
 10
3.101
 20
29.0175
 10
3.221
 20
29.52
 10
3.4085
 20
29.52
 10
3.4085
 20
28.77
  0
LWPOLYLINE
  5
28E
330
1F
100
AcDbEntity
  8
Silk_Screen
100
AcDbPolyline
 90
       53
 70
     1
 43
0.0
 10
3.1835
 20
30.72
 10
3.236
 20
30.7275
 10
3.281
 20
30.735
 10
3.3185
 20
30.7575
 10
3.356
 20
30.7875
 10
3.386
 20
30.825
 10
3.401
 20
30.87
 10
3.4085
 20
30.9225
 10
3.4085
 20
30.9675
 10
3.3635
 20
31.0425
 10
3.326
 20
31.0725
 10
3.2885
 20
31.095
 10
3.251
 20
31.11
 10
3.2885
 20
31.125
 10
3.3185
 20
31.14
 10
3.3485
 20
31.17
 10
3.371
 20
31.2075
 10
3.386
 20
31.2825
 10
3.3785
 20
31.335
 10
3.3335
 20
31.41
 10
3.296
 20
31.4325
 10
3.251
 20
31.455
 10
3.176
 20
31.4675
 10
3.161
 20
31.47
 10
2.936
 20
31.47
 10
2.936
 20
31.3425
 10
3.176
 20
31.3425
 10
3.221
 20
31.3125
 10
3.2285
 20
31.2825
 10
3.236
 20
31.26
 10
3.2285
 20
31.23
 10
3.221
 20
31.2075
 10
3.1985
 20
31.185
 10
3.191
 20
31.1825
 10
3.176
 20
31.1775
 10
3.146
 20
31.17
 10
2.936
 20
31.17
 10
2.936
 20
31.0425
 10
3.191
 20
31.0425
 10
3.221
 20
31.0275
 10
3.2435
 20
31.005
 10
3.2585
 20
30.975
 10
3.2585
 20
30.915
 10
3.2435
 20
30.885
 10
3.221
 20
30.8625
 10
3.191
 20
30.8475
 10
2.936
 20
30.8475
 10
2.936
 20
31.0425
 10
2.936
 20
31.17
 10
2.936
 20
31.3425
 10
2.936
 20
31.47
 10
2.786
 20
31.47
 10
2.786
 20
30.72
  0
LWPOLYLINE
  5
28F
330
1F
100
AcDbEntity
  8
Silk_Screen
100
AcDbPolyline
 90
       17
 70
     1
 43
0.0
 10
3.296
 20
27.795
 10
3.296
 20
27.9675
 10
3.4085
 20
27.9675
 10
3.4085
 20
28.08
 10
3.296
 20
28.08
 10
3.296
 20
28.545
 10
3.161
 20
28.545
 10
3.161
 20
28.38
 10
3.161
 20
28.08
 10
2.936
 20
28.08
 10
3.161
 20
28.38
 10
3.161
 20
28.545
 10
3.1385
 20
28.545
 10
2.786
 20
28.0725
 10
2.786
 20
27.9675
 10
3.161
 20
27.9675
 10
3.161
 20
27.795
  0
LWPOLYLINE
  5
290
330
1F
100
AcDbEntity
  8
Silk_Screen
100
AcDbPolyline
 90
       57
 70
     1
 43
0.0
 10
3.9035
 20
29.745
 10
3.9485
 20
29.745
 10
3.9935
 20
29.7675
 10
4.031
 20
29.79
 10
4.0685
 20
29.82
 10
4.1135
 20
29.91
 10
3.9635
 20
29.91
 10
3.941
 20
29.88
 10
3.911
 20
29.8575
 10
3.851
 20
29.8425
 10
3.8135
 20
29.85
 10
3.776
 20
29.8725
 10
3.7535
 20
29.895
 10
3.7385
 20
29.925
 10
3.731
 20
29.9625
 10
3.7235
 20
29.9925
 10
4.121
 20
29.9925
 10
4.121
 20
30.0225
 10
4.1135
 20
30.075
 10
4.0985
 20
30.12
 10
4.076000000000001
 20
30.1725
 10
4.046
 20
30.21
 10
4.0085
 20
30.2475
 10
3.971
 20
30.2775
 10
3.9185
 20
30.3
 10
3.8585
 20
30.3075
 10
3.851
 20
30.3065
 10
3.851
 20
30.195
 10
3.8885
 20
30.1875
 10
3.9185
 20
30.165
 10
3.9485
 20
30.135
 10
3.9635
 20
30.105
 10
3.971
 20
30.0675
 10
3.7235
 20
30.0675
 10
3.731
 20
30.105
 10
3.7535
 20
30.1425
 10
3.776
 20
30.165
 10
3.806
 20
30.1875
 10
3.851
 20
30.195
 10
3.851
 20
30.3065
 10
3.7985
 20
30.3
 10
3.746
 20
30.285
 10
3.701
 20
30.2625
 10
3.6635
 20
30.2325
 10
3.6335
 20
30.1875
 10
3.611
 20
30.1425
 10
3.596
 20
30.0975
 10
3.5885
 20
30.045
 10
3.5885
 20
29.9925
 10
3.596
 20
29.94
 10
3.611
 20
29.895
 10
3.6335
 20
29.85
 10
3.6635
 20
29.8125
 10
3.701
 20
29.775
 10
3.746
 20
29.7525
 10
3.7985
 20
29.745
 10
3.8585
 20
29.7375
  0
LWPOLYLINE
  5
291
330
1F
100
AcDbEntity
  8
Silk_Screen
100
AcDbPolyline
 90
       73
 70
     1
 43
0.0
 10
3.9035
 20
27.795
 10
3.9485
 20
27.8025
 10
3.9935
 20
27.8325
 10
4.031
 20
27.8625
 10
4.061
 20
27.9
 10
4.091
 20
27.9525
 10
4.1135
 20
27.9975
 10
4.121
 20
28.0575
 10
4.136
 20
28.11
 10
4.136
 20
28.23
 10
4.121
 20
28.2825
 10
4.1135
 20
28.3425
 10
4.0835
 20
28.4025
 10
4.136
 20
28.4775
 10
4.061
 20
28.545
 10
4.016
 20
28.485
 10
3.9935
 20
28.5075
 10
3.986
 20
28.5125
 10
3.986
 20
28.2675
 10
3.9935
 20
28.2225
 10
4.001
 20
28.17
 10
3.9935
 20
28.1175
 10
3.9785
 20
28.0275
 10
3.9635
 20
27.99
 10
3.941
 20
27.9525
 10
3.911
 20
27.93
 10
3.881
 20
27.915
 10
3.851
 20
27.9075
 10
3.8135
 20
27.915
 10
3.7835
 20
27.93
 10
3.761
 20
27.9525
 10
3.986
 20
28.2675
 10
3.986
 20
28.5125
 10
3.9485
 20
28.5375
 10
3.9035
 20
28.5525
 10
3.851
 20
28.56
 10
3.851
 20
28.4325
 10
3.881
 20
28.425
 10
3.911
 20
28.41
 10
3.941
 20
28.3875
 10
3.7085
 20
28.0725
 10
3.701
 20
28.1175
 10
3.701
 20
28.2225
 10
3.7085
 20
28.2675
 10
3.7235
 20
28.3125
 10
3.7385
 20
28.35
 10
3.761
 20
28.3875
 10
3.7835
 20
28.41
 10
3.8135
 20
28.425
 10
3.851
 20
28.4325
 10
3.851
 20
28.56
 10
3.791
 20
28.5525
 10
3.746
 20
28.5375
 10
3.701
 20
28.5075
 10
3.6635
 20
28.4775
 10
3.6335
 20
28.44
 10
3.6035
 20
28.3875
 10
3.5885
 20
28.3425
 10
3.5735
 20
28.2825
 10
3.566
 20
28.23
 10
3.5585
 20
28.17
 10
3.566
 20
28.11
 10
3.5735
 20
28.0575
 10
3.5885
 20
27.9975
 10
3.6035
 20
27.9525
 10
3.611
 20
27.9375
 10
3.5585
 20
27.87
 10
3.641
 20
27.795
 10
3.686
 20
27.8475
 10
3.701
 20
27.8325
 10
3.746
 20
27.8025
 10
3.791
 20
27.795
 10
3.851
 20
27.7875
  0
LWPOLYLINE
  5
292
330
1F
100
AcDbEntity
  8
Silk_Screen
100
AcDbPolyline
 90
       29
 70
     1
 43
0.0
 10
3.986
 20
26.82
 10
3.986
 20
26.91
 10
3.956
 20
26.88
 10
3.9185
 20
26.85
 10
3.881
 20
26.8275
 10
3.836
 20
26.82
 10
3.7835
 20
26.8125
 10
3.7385
 20
26.82
 10
3.701
 20
26.8275
 10
3.656
 20
26.8425
 10
3.626
 20
26.8725
 10
3.596
 20
26.91
 10
3.581
 20
26.9475
 10
3.5735
 20
26.9925
 10
3.5735
 20
27.3675
 10
3.7235
 20
27.3675
 10
3.7235
 20
27.045
 10
3.731
 20
27.0075
 10
3.746
 20
26.985
 10
3.776
 20
26.9625
 10
3.806
 20
26.9475
 10
3.8735
 20
26.9475
 10
3.9035
 20
26.9625
 10
3.9335
 20
26.985
 10
3.956
 20
27.015
 10
3.971
 20
27.045
 10
3.971
 20
27.3675
 10
4.121
 20
27.3675
 10
4.121
 20
26.82
  0
LWPOLYLINE
  5
293
330
1F
100
AcDbEntity
  8
Silk_Screen
100
AcDbPolyline
 90
       53
 70
     1
 43
0.0
 10
4.03
 20
25.09
 10
4.065
 20
25.095
 10
4.095
 20
25.1
 10
4.12
 20
25.115
 10
4.145
 20
25.135
 10
4.165
 20
25.16
 10
4.175
 20
25.19
 10
4.18
 20
25.225
 10
4.18
 20
25.255
 10
4.15
 20
25.305
 10
4.125
 20
25.325
 10
4.1
 20
25.34
 10
4.075
 20
25.35
 10
4.1
 20
25.36
 10
4.12
 20
25.37
 10
4.14
 20
25.39
 10
4.155
 20
25.415
 10
4.165
 20
25.465
 10
4.16
 20
25.5
 10
4.13
 20
25.55
 10
4.105
 20
25.565
 10
4.075
 20
25.58
 10
4.025
 20
25.5885
 10
4.015
 20
25.59
 10
3.865
 20
25.59
 10
3.865
 20
25.505
 10
4.025
 20
25.505
 10
4.055
 20
25.485
 10
4.06
 20
25.465
 10
4.065
 20
25.45
 10
4.06
 20
25.43
 10
4.055
 20
25.415
 10
4.04
 20
25.4
 10
4.035
 20
25.3985
 10
4.025
 20
25.395
 10
4.005
 20
25.39
 10
3.865
 20
25.39
 10
3.865
 20
25.305
 10
4.035
 20
25.305
 10
4.055
 20
25.295
 10
4.07
 20
25.28
 10
4.08
 20
25.26
 10
4.08
 20
25.22
 10
4.07
 20
25.2
 10
4.055
 20
25.185
 10
4.035
 20
25.175
 10
3.865
 20
25.175
 10
3.865
 20
25.305
 10
3.865
 20
25.39
 10
3.865
 20
25.505
 10
3.865
 20
25.59
 10
3.765
 20
25.59
 10
3.765
 20
25.09
  0
LWPOLYLINE
  5
294
330
1F
100
AcDbEntity
  8
Silk_Screen
100
AcDbPolyline
 90
       67
 70
     1
 43
0.0
 10
3.8285
 20
28.77
 10
3.881
 20
28.77
 10
3.926
 20
28.7925
 10
3.9635
 20
28.83
 10
3.9785
 20
28.7925
 10
4.001
 20
28.77
 10
4.121
 20
28.77
 10
4.106
 20
28.7925
 10
4.091
 20
28.8225
 10
4.0835
 20
28.86
 10
4.0835
 20
29.1675
 10
4.076000000000001
 20
29.22
 10
4.0535
 20
29.2575
 10
4.0235
 20
29.2875
 10
3.986
 20
29.31
 10
3.9635
 20
29.319
 10
3.9635
 20
29.055
 10
3.9635
 20
28.9725
 10
3.9485
 20
28.935
 10
3.926
 20
28.8975
 10
3.896
 20
28.875
 10
3.8585
 20
28.86
 10
3.7985
 20
28.86
 10
3.7685
 20
28.8675
 10
3.7385
 20
28.8825
 10
3.716
 20
28.8975
 10
3.7085
 20
28.935
 10
3.7235
 20
28.965
 10
3.746
 20
28.9875
 10
3.7685
 20
29.0025
 10
3.7985
 20
29.01
 10
3.896
 20
29.0325
 10
3.9635
 20
29.055
 10
3.9635
 20
29.319
 10
3.9485
 20
29.325
 10
3.9035
 20
29.3325
 10
3.8585
 20
29.3325
 10
3.7685
 20
29.3175
 10
3.7235
 20
29.295
 10
3.686
 20
29.2725
 10
3.656
 20
29.235
 10
3.6335
 20
29.1975
 10
3.626
 20
29.145
 10
3.746
 20
29.145
 10
3.761
 20
29.175
 10
3.776
 20
29.1975
 10
3.7985
 20
29.22
 10
3.8585
 20
29.235
 10
3.9185
 20
29.22
 10
3.941
 20
29.1975
 10
3.9485
 20
29.1675
 10
3.941
 20
29.145
 10
3.9185
 20
29.1225
 10
3.8735
 20
29.1075
 10
3.746
 20
29.085
 10
3.671
 20
29.055
 10
3.6335
 20
29.0325
 10
3.6035
 20
29.0025
 10
3.581
 20
28.965
 10
3.5735
 20
28.92
 10
3.581
 20
28.875
 10
3.6035
 20
28.8375
 10
3.626
 20
28.8075
 10
3.6635
 20
28.785
 10
3.701
 20
28.77
 10
3.746
 20
28.77
 10
3.7835
 20
28.7625
  0
LWPOLYLINE
  5
295
330
1F
100
AcDbEntity
  8
Silk_Screen
100
AcDbPolyline
 90
       64
 70
     1
 43
0.0
 10
4.1435
 20
31.2825
 10
4.1585
 20
31.23
 10
4.0085
 20
31.23
 10
3.9935
 20
31.2675
 10
3.971
 20
31.305
 10
3.941
 20
31.3275
 10
3.9035
 20
31.35
 10
3.8585
 20
31.3575
 10
3.821
 20
31.35
 10
3.7835
 20
31.335
 10
3.7535
 20
31.3125
 10
3.7235
 20
31.275
 10
3.7085
 20
31.2375
 10
3.6935
 20
31.1925
 10
3.686
 20
31.1475
 10
3.686
 20
31.0425
 10
3.6935
 20
30.9975
 10
3.7085
 20
30.9525
 10
3.7235
 20
30.915
 10
3.7535
 20
30.8775
 10
3.7835
 20
30.855
 10
3.821
 20
30.84
 10
3.8585
 20
30.8325
 10
3.9035
 20
30.84
 10
3.9335
 20
30.855
 10
3.9635
 20
30.8775
 10
3.986
 20
30.9075
 10
4.001
 20
30.945
 10
4.0085
 20
30.9825
 10
3.8735
 20
30.9825
 10
3.8735
 20
31.095
 10
4.1585
 20
31.095
 10
4.1585
 20
30.72
 10
4.076000000000001
 20
30.72
 10
4.046
 20
30.81
 10
4.0235
 20
30.7725
 10
3.9485
 20
30.7275
 10
3.8585
 20
30.7125
 10
3.7985
 20
30.72
 10
3.746
 20
30.7275
 10
3.6935
 20
30.7575
 10
3.656
 20
30.7875
 10
3.6185
 20
30.825
 10
3.5885
 20
30.8775
 10
3.566
 20
30.9225
 10
3.551
 20
30.9825
 10
3.5435
 20
31.035
 10
3.536
 20
31.095
 10
3.5435
 20
31.155
 10
3.551
 20
31.2075
 10
3.566
 20
31.2675
 10
3.5885
 20
31.3125
 10
3.6185
 20
31.365
 10
3.656
 20
31.4025
 10
3.6935
 20
31.4325
 10
3.746
 20
31.4625
 10
3.7985
 20
31.4775
 10
3.8585
 20
31.485
 10
3.9185
 20
31.4775
 10
3.9635
 20
31.4625
 10
4.016
 20
31.44
 10
4.0535
 20
31.41
 10
4.091
 20
31.3725
 10
4.121
 20
31.335
  0
LWPOLYLINE
  5
296
330
1F
100
AcDbEntity
  8
Silk_Screen
100
AcDbPolyline
 90
       10
 70
     1
 43
0.0
 10
4.525
 20
24.515
 10
4.59
 20
24.515
 10
4.59
 20
24.44
 10
4.355
 20
24.44
 10
4.355
 20
24.515
 10
4.425
 20
24.515
 10
4.425
 20
24.865
 10
4.33
 20
24.865
 10
4.33
 20
24.94
 10
4.525
 20
24.94
  0
LWPOLYLINE
  5
297
330
1F
100
AcDbEntity
  8
Silk_Screen
100
AcDbPolyline
 90
       69
 70
     1
 43
0.0
 10
4.721
 20
27.2175
 10
4.721
 20
27.24
 10
4.706
 20
27.2625
 10
4.6835
 20
27.2775
 10
4.6535
 20
27.285
 10
4.616
 20
27.2925
 10
4.5785
 20
27.2925
 10
4.5185
 20
27.2775
 10
4.496
 20
27.2625
 10
4.481
 20
27.24
 10
4.4735
 20
27.2175
 10
4.481
 20
27.195
 10
4.5035
 20
27.18
 10
4.526
 20
27.1725
 10
4.5485
 20
27.1725
 10
4.736
 20
27.135
 10
4.7735
 20
27.12
 10
4.8035
 20
27.105
 10
4.8335
 20
27.0825
 10
4.856
 20
27.0525
 10
4.871
 20
27.0225
 10
4.871
 20
26.9475
 10
4.856
 20
26.91
 10
4.826000000000001
 20
26.88
 10
4.796
 20
26.8575
 10
4.7585
 20
26.835
 10
4.7135
 20
26.82
 10
4.481
 20
26.82
 10
4.436
 20
26.835
 10
4.3985
 20
26.8575
 10
4.3685
 20
26.88
 10
4.346
 20
26.91
 10
4.331
 20
26.9475
 10
4.3235
 20
26.985
 10
4.4585
 20
26.985
 10
4.466
 20
26.9625
 10
4.481
 20
26.94
 10
4.5035
 20
26.925
 10
4.5635
 20
26.91
 10
4.631
 20
26.91
 10
4.6685
 20
26.9175
 10
4.691
 20
26.925
 10
4.7135
 20
26.94
 10
4.7285
 20
26.9625
 10
4.736
 20
26.985
 10
4.7285
 20
27.0075
 10
4.706
 20
27.0225
 10
4.6835
 20
27.03
 10
4.496
 20
27.0675
 10
4.466
 20
27.0825
 10
4.4285
 20
27.0975
 10
4.3985
 20
27.12
 10
4.376
 20
27.1425
 10
4.3535
 20
27.18
 10
4.346
 20
27.2175
 10
4.3535
 20
27.255
 10
4.3685
 20
27.2925
 10
4.391
 20
27.3225
 10
4.4285
 20
27.345
 10
4.5035
 20
27.375
 10
4.5485
 20
27.3825
 10
4.646
 20
27.3825
 10
4.691
 20
27.375
 10
4.736
 20
27.36
 10
4.7735
 20
27.345
 10
4.8035
 20
27.3225
 10
4.826000000000001
 20
27.2925
 10
4.841
 20
27.255
 10
4.8485
 20
27.2175
  0
LWPOLYLINE
  5
298
330
1F
100
AcDbEntity
  8
Silk_Screen
100
AcDbPolyline
 90
       13
 70
     1
 43
0.0
 10
4.7885
 20
27.795
 10
4.7885
 20
28.4175
 10
4.646
 20
27.9225
 10
4.5485
 20
27.9225
 10
4.3985
 20
28.4175
 10
4.3985
 20
27.795
 10
4.286
 20
27.795
 10
4.286
 20
28.545
 10
4.4735
 20
28.545
 10
4.601
 20
28.0425
 10
4.721
 20
28.545
 10
4.9085
 20
28.545
 10
4.9085
 20
27.795
  0
LWPOLYLINE
  5
299
330
1F
100
AcDbEntity
  8
Silk_Screen
100
AcDbPolyline
 90
       17
 70
     1
 43
0.0
 10
4.736
 20
29.3325
 10
4.811
 20
29.3325
 10
4.811
 20
29.1825
 10
4.7135
 20
29.1825
 10
4.676
 20
29.175
 10
4.6535
 20
29.1675
 10
4.631
 20
29.145
 10
4.601
 20
29.085
 10
4.601
 20
28.77
 10
4.451000000000001
 20
28.77
 10
4.451000000000001
 20
29.3175
 10
4.586
 20
29.3175
 10
4.586
 20
29.235
 10
4.6085
 20
29.265
 10
4.631
 20
29.2875
 10
4.661
 20
29.31
 10
4.6985
 20
29.325
  0
LWPOLYLINE
  5
29A
330
1F
100
AcDbEntity
  8
Silk_Screen
100
AcDbPolyline
 90
       17
 70
     1
 43
0.0
 10
4.736
 20
30.3075
 10
4.811
 20
30.3075
 10
4.811
 20
30.1575
 10
4.7135
 20
30.1575
 10
4.676
 20
30.15
 10
4.6535
 20
30.1425
 10
4.631
 20
30.12
 10
4.601
 20
30.06
 10
4.601
 20
29.745
 10
4.451000000000001
 20
29.745
 10
4.451000000000001
 20
30.2925
 10
4.586
 20
30.2925
 10
4.586
 20
30.21
 10
4.6085
 20
30.24
 10
4.631
 20
30.2625
 10
4.661
 20
30.285
 10
4.6985
 20
30.3
  0
LWPOLYLINE
  5
29B
330
1F
100
AcDbEntity
  8
Silk_Screen
100
AcDbPolyline
 90
       73
 70
     1
 43
0.0
 10
4.88
 20
25.465
 10
4.89
 20
25.44
 10
4.905
 20
25.425
 10
4.92
 20
25.415
 10
4.94
 20
25.405
 10
5.04
 20
25.375
 10
5.065
 20
25.365
 10
5.09
 20
25.35
 10
5.12
 20
25.335
 10
5.145
 20
25.315
 10
5.165
 20
25.29
 10
5.175
 20
25.26
 10
5.18
 20
25.225
 10
5.175
 20
25.185
 10
5.16
 20
25.155
 10
5.135
 20
25.13
 10
5.105
 20
25.11
 10
5.075
 20
25.095
 10
5.04
 20
25.09
 10
5.005
 20
25.09
 10
4.975000000000001
 20
25.085
 10
4.94
 20
25.09
 10
4.9
 20
25.09
 10
4.87
 20
25.105
 10
4.835
 20
25.125
 10
4.81
 20
25.145
 10
4.785
 20
25.175
 10
4.77
 20
25.21
 10
4.765
 20
25.25
 10
4.865
 20
25.25
 10
4.87
 20
25.22
 10
4.885
 20
25.2
 10
4.905
 20
25.185
 10
4.925
 20
25.175
 10
4.975000000000001
 20
25.165
 10
5.015
 20
25.165
 10
5.055
 20
25.175
 10
5.075
 20
25.19
 10
5.08
 20
25.215
 10
5.075
 20
25.24
 10
5.045
 20
25.27
 10
5.005
 20
25.28
 10
4.915
 20
25.315
 10
4.885
 20
25.325
 10
4.855
 20
25.34
 10
4.83
 20
25.36
 10
4.805
 20
25.385
 10
4.79
 20
25.42
 10
4.78
 20
25.455
 10
4.785
 20
25.495
 10
4.8
 20
25.525
 10
4.82
 20
25.55
 10
4.850000000000001
 20
25.57
 10
4.91
 20
25.59
 10
4.94
 20
25.595
 10
4.975000000000001
 20
25.6
 10
5.035
 20
25.59
 10
5.07
 20
25.575
 10
5.100000000000001
 20
25.56
 10
5.125
 20
25.54
 10
5.145
 20
25.515
 10
5.16
 20
25.485
 10
5.165
 20
25.45
 10
5.075
 20
25.45
 10
5.065
 20
25.475
 10
5.045
 20
25.495
 10
5.02
 20
25.505
 10
4.995
 20
25.51
 10
4.975000000000001
 20
25.515
 10
4.955
 20
25.515
 10
4.93
 20
25.51
 10
4.91
 20
25.505
 10
4.89
 20
25.49
  0
LWPOLYLINE
  5
29C
330
1F
100
AcDbEntity
  8
Silk_Screen
100
AcDbPolyline
 90
       14
 70
     1
 43
0.0
 10
4.451000000000001
 20
30.72
 10
4.4885
 20
30.87
 10
4.7135
 20
30.87
 10
4.751
 20
30.72
 10
4.9085
 20
30.72
 10
4.6835
 20
31.47
 10
4.601
 20
31.47
 10
4.601
 20
31.305
 10
4.6835
 20
30.9825
 10
4.511
 20
30.9825
 10
4.601
 20
31.305
 10
4.601
 20
31.47
 10
4.511
 20
31.47
 10
4.286
 20
30.72
  0
LWPOLYLINE
  5
29D
330
1F
100
AcDbEntity
  8
Silk_Screen
100
AcDbPolyline
 90
       51
 70
     1
 43
0.0
 10
5.0735
 20
29.0175
 10
5.0735
 20
29.07
 10
5.081
 20
29.1225
 10
5.096
 20
29.1675
 10
5.1185
 20
29.2125
 10
5.1935
 20
29.2875
 10
5.2385
 20
29.31
 10
5.2985
 20
29.325
 10
5.3585
 20
29.3325
 10
5.4635
 20
29.3175
 10
5.5085
 20
29.295
 10
5.553500000000001
 20
29.265
 10
5.5835
 20
29.235
 10
5.6135
 20
29.19
 10
5.621
 20
29.13
 10
5.486
 20
29.13
 10
5.471
 20
29.16
 10
5.456
 20
29.1825
 10
5.426
 20
29.1975
 10
5.4035
 20
29.205
 10
5.3285
 20
29.205
 10
5.2985
 20
29.19
 10
5.246
 20
29.1375
 10
5.231
 20
29.1
 10
5.2235
 20
29.0625
 10
5.2235
 20
29.025
 10
5.231
 20
28.9875
 10
5.246
 20
28.9575
 10
5.2685
 20
28.9275
 10
5.2985
 20
28.905
 10
5.3285
 20
28.89
 10
5.3735
 20
28.8825
 10
5.4035
 20
28.8825
 10
5.4335
 20
28.8975
 10
5.456
 20
28.9125
 10
5.4785
 20
28.9425
 10
5.486
 20
28.9725
 10
5.621
 20
28.9725
 10
5.6135
 20
28.92
 10
5.5685
 20
28.845
 10
5.531
 20
28.815
 10
5.4935
 20
28.7925
 10
5.4485
 20
28.77
 10
5.4035
 20
28.77
 10
5.3585
 20
28.7625
 10
5.2385
 20
28.7775
 10
5.1935
 20
28.8075
 10
5.156
 20
28.8375
 10
5.1185
 20
28.875
 10
5.096
 20
28.92
 10
5.081
 20
28.9725
  0
LWPOLYLINE
  5
29E
330
1F
100
AcDbEntity
  8
Silk_Screen
100
AcDbPolyline
 90
       67
 70
     1
 43
0.0
 10
4.96
 20
24.44
 10
4.995
 20
24.44
 10
5.025
 20
24.455
 10
5.05
 20
24.48
 10
5.06
 20
24.455
 10
5.075
 20
24.44
 10
5.155
 20
24.44
 10
5.145
 20
24.455
 10
5.135
 20
24.475
 10
5.13
 20
24.5
 10
5.13
 20
24.705
 10
5.125
 20
24.74
 10
5.11
 20
24.765
 10
5.09
 20
24.785
 10
5.065
 20
24.8
 10
5.05
 20
24.806
 10
5.05
 20
24.63
 10
5.05
 20
24.575
 10
5.04
 20
24.55
 10
5.025
 20
24.525
 10
5.005
 20
24.51
 10
4.98
 20
24.5
 10
4.94
 20
24.5
 10
4.92
 20
24.505
 10
4.9
 20
24.515
 10
4.885
 20
24.525
 10
4.88
 20
24.55
 10
4.89
 20
24.57
 10
4.905
 20
24.585
 10
4.92
 20
24.595
 10
4.94
 20
24.6
 10
5.005
 20
24.615
 10
5.05
 20
24.63
 10
5.05
 20
24.806
 10
5.04
 20
24.81
 10
5.01
 20
24.815
 10
4.98
 20
24.815
 10
4.92
 20
24.805
 10
4.89
 20
24.79
 10
4.865
 20
24.775
 10
4.845
 20
24.75
 10
4.83
 20
24.725
 10
4.825
 20
24.69
 10
4.905
 20
24.69
 10
4.915
 20
24.71
 10
4.925
 20
24.725
 10
4.94
 20
24.74
 10
4.98
 20
24.75
 10
5.02
 20
24.74
 10
5.035
 20
24.725
 10
5.04
 20
24.705
 10
5.035
 20
24.69
 10
5.02
 20
24.675
 10
4.99
 20
24.665
 10
4.905
 20
24.65
 10
4.855
 20
24.63
 10
4.83
 20
24.615
 10
4.81
 20
24.595
 10
4.795
 20
24.57
 10
4.79
 20
24.54
 10
4.795
 20
24.51
 10
4.81
 20
24.485
 10
4.825
 20
24.465
 10
4.850000000000001
 20
24.45
 10
4.875
 20
24.44
 10
4.905
 20
24.44
 10
4.93
 20
24.435
  0
LWPOLYLINE
  5
29F
330
1F
100
AcDbEntity
  8
Silk_Screen
100
AcDbPolyline
 90
       17
 70
     1
 43
0.0
 10
5.34
 20
24.31
 10
5.34
 20
24.385
 10
5.4
 20
24.385
 10
5.415
 20
24.39
 10
5.425
 20
24.405
 10
5.43
 20
24.435
 10
5.29
 20
24.805
 10
5.39
 20
24.805
 10
5.475000000000001
 20
24.555
 10
5.555
 20
24.805
 10
5.655
 20
24.805
 10
5.505
 20
24.385
 10
5.495
 20
24.365
 10
5.48
 20
24.345
 10
5.465
 20
24.33
 10
5.44
 20
24.315
 10
5.415
 20
24.31
  0
LWPOLYLINE
  5
2A0
330
1F
100
AcDbEntity
  8
Silk_Screen
100
AcDbPolyline
 90
       69
 70
     1
 43
0.0
 10
5.471
 20
30.1425
 10
5.471
 20
30.165
 10
5.456
 20
30.1875
 10
5.4335
 20
30.2025
 10
5.4035
 20
30.21
 10
5.366000000000001
 20
30.2175
 10
5.3285
 20
30.2175
 10
5.2685
 20
30.2025
 10
5.246
 20
30.1875
 10
5.231
 20
30.165
 10
5.2235
 20
30.1425
 10
5.231
 20
30.12
 10
5.2535
 20
30.105
 10
5.276
 20
30.0975
 10
5.2985
 20
30.0975
 10
5.486
 20
30.06
 10
5.5235
 20
30.045
 10
5.553500000000001
 20
30.03
 10
5.5835
 20
30.0075
 10
5.606
 20
29.9775
 10
5.621
 20
29.9475
 10
5.621
 20
29.8725
 10
5.606
 20
29.835
 10
5.576000000000001
 20
29.805
 10
5.546
 20
29.7825
 10
5.5085
 20
29.76
 10
5.4635
 20
29.745
 10
5.231
 20
29.745
 10
5.186
 20
29.76
 10
5.1485
 20
29.7825
 10
5.1185
 20
29.805
 10
5.096
 20
29.835
 10
5.081
 20
29.8725
 10
5.0735
 20
29.91
 10
5.2085
 20
29.91
 10
5.216
 20
29.8875
 10
5.231
 20
29.865
 10
5.2535
 20
29.85
 10
5.3135
 20
29.835
 10
5.381
 20
29.835
 10
5.4185
 20
29.8425
 10
5.441
 20
29.85
 10
5.4635
 20
29.865
 10
5.4785
 20
29.8875
 10
5.486
 20
29.91
 10
5.4785
 20
29.9325
 10
5.456
 20
29.9475
 10
5.4335
 20
29.955
 10
5.246
 20
29.9925
 10
5.216
 20
30.0075
 10
5.178500000000001
 20
30.0225
 10
5.1485
 20
30.045
 10
5.126
 20
30.0675
 10
5.1035
 20
30.105
 10
5.096
 20
30.1425
 10
5.1035
 20
30.18
 10
5.1185
 20
30.2175
 10
5.141
 20
30.2475
 10
5.178500000000001
 20
30.27
 10
5.2535
 20
30.3
 10
5.2985
 20
30.3075
 10
5.396
 20
30.3075
 10
5.441
 20
30.3
 10
5.486
 20
30.285
 10
5.5235
 20
30.27
 10
5.553500000000001
 20
30.2475
 10
5.576000000000001
 20
30.2175
 10
5.591
 20
30.18
 10
5.5985
 20
30.1425
  0
LWPOLYLINE
  5
2A1
330
1F
100
AcDbEntity
  8
Silk_Screen
100
AcDbPolyline
 90
       27
 70
     1
 43
0.0
 10
5.486
 20
26.82
 10
5.486
 20
27.1575
 10
5.4785
 20
27.195
 10
5.4635
 20
27.225
 10
5.441
 20
27.2475
 10
5.411
 20
27.2625
 10
5.3735
 20
27.27
 10
5.336
 20
27.27
 10
5.2985
 20
27.255
 10
5.2685
 20
27.2325
 10
5.2235
 20
27.1725
 10
5.2085
 20
27.0975
 10
5.2085
 20
26.82
 10
5.0735
 20
26.82
 10
5.0735
 20
27.57
 10
5.2085
 20
27.57
 10
5.2085
 20
27.3075
 10
5.2535
 20
27.3375
 10
5.306
 20
27.3675
 10
5.411
 20
27.3825
 10
5.501
 20
27.3675
 10
5.5385
 20
27.345
 10
5.576000000000001
 20
27.315
 10
5.5985
 20
27.285
 10
5.6135
 20
27.24
 10
5.621
 20
27.195
 10
5.621
 20
26.82
  0
LWPOLYLINE
  5
2A2
330
1F
100
AcDbEntity
  8
Silk_Screen
100
AcDbPolyline
 90
       12
 70
     1
 43
0.0
 10
5.5085
 20
27.795
 10
5.5085
 20
28.1325
 10
5.186
 20
28.1325
 10
5.186
 20
27.795
 10
5.036
 20
27.795
 10
5.036
 20
28.545
 10
5.186
 20
28.545
 10
5.186
 20
28.26
 10
5.5085
 20
28.26
 10
5.5085
 20
28.545
 10
5.6585
 20
28.545
 10
5.6585
 20
27.795
  0
LWPOLYLINE
  5
2A3
330
1F
100
AcDbEntity
  8
Silk_Screen
100
AcDbPolyline
 90
       54
 70
     1
 43
0.0
 10
5.38
 20
24.97
 10
5.38
 20
25.14
 10
5.405
 20
25.115
 10
5.435
 20
25.095
 10
5.465
 20
25.09
 10
5.5
 20
25.085
 10
5.535
 20
25.09
 10
5.565
 20
25.095
 10
5.59
 20
25.115
 10
5.61
 20
25.135
 10
5.63
 20
25.16
 10
5.64
 20
25.19
 10
5.65
 20
25.225
 10
5.655
 20
25.255
 10
5.655
 20
25.29
 10
5.65
 20
25.325
 10
5.63
 20
25.385
 10
5.59
 20
25.435
 10
5.565
 20
25.45
 10
5.535
 20
25.46
 10
5.5
 20
25.465
 10
5.475000000000001
 20
25.4615
 10
5.475000000000001
 20
25.39
 10
5.5
 20
25.385
 10
5.52
 20
25.375
 10
5.54
 20
25.36
 10
5.55
 20
25.335
 10
5.56
 20
25.315
 10
5.565
 20
25.285
 10
5.565
 20
25.26
 10
5.56
 20
25.235
 10
5.55
 20
25.21
 10
5.54
 20
25.19
 10
5.52
 20
25.17
 10
5.5
 20
25.16
 10
5.475000000000001
 20
25.155
 10
5.445
 20
25.16
 10
5.425
 20
25.17
 10
5.395
 20
25.21
 10
5.385
 20
25.235
 10
5.385
 20
25.315
 10
5.395
 20
25.335
 10
5.41
 20
25.36
 10
5.425
 20
25.375
 10
5.445
 20
25.385
 10
5.475000000000001
 20
25.39
 10
5.475000000000001
 20
25.4615
 10
5.465
 20
25.46
 10
5.435
 20
25.45
 10
5.405
 20
25.43
 10
5.38
 20
25.405
 10
5.38
 20
25.455
 10
5.29
 20
25.455
 10
5.29
 20
24.97
  0
LWPOLYLINE
  5
2A4
330
1F
100
AcDbEntity
  8
Silk_Screen
100
AcDbPolyline
 90
       73
 70
     1
 43
0.0
 10
5.6435
 20
31.02
 10
5.6585
 20
30.9825
 10
5.6585
 20
30.945
 10
5.651
 20
30.885
 10
5.636
 20
30.84
 10
5.5985
 20
30.795
 10
5.561
 20
30.765
 10
5.516
 20
30.7425
 10
5.4635
 20
30.72
 10
5.411
 20
30.72
 10
5.3585
 20
30.7125
 10
5.306
 20
30.72
 10
5.246
 20
30.7275
 10
5.1935
 20
30.75
 10
5.1485
 20
30.78
 10
5.111
 20
30.8175
 10
5.0735
 20
30.8625
 10
5.051
 20
30.915
 10
5.036
 20
30.9675
 10
5.171
 20
30.9675
 10
5.186
 20
30.93
 10
5.2085
 20
30.8925
 10
5.2385
 20
30.8625
 10
5.276
 20
30.8475
 10
5.321
 20
30.8325
 10
5.396
 20
30.8325
 10
5.471
 20
30.8625
 10
5.501
 20
30.885
 10
5.516
 20
30.915
 10
5.5235
 20
30.96
 10
5.516
 20
30.99
 10
5.4935
 20
31.02
 10
5.4635
 20
31.0425
 10
5.4335
 20
31.0575
 10
5.246
 20
31.0575
 10
5.246
 20
31.155
 10
5.3735
 20
31.155
 10
5.4035
 20
31.1625
 10
5.4635
 20
31.1925
 10
5.4785
 20
31.2225
 10
5.486
 20
31.26
 10
5.4785
 20
31.29
 10
5.456
 20
31.32
 10
5.4335
 20
31.335
 10
5.396
 20
31.35
 10
5.366000000000001
 20
31.3575
 10
5.2985
 20
31.3575
 10
5.261
 20
31.3425
 10
5.231
 20
31.3275
 10
5.201000000000001
 20
31.305
 10
5.178500000000001
 20
31.275
 10
5.171
 20
31.23
 10
5.051
 20
31.23
 10
5.0585
 20
31.29
 10
5.081
 20
31.335
 10
5.111
 20
31.38
 10
5.1485
 20
31.4175
 10
5.1935
 20
31.4475
 10
5.2985
 20
31.4775
 10
5.351
 20
31.485
 10
5.441
 20
31.47
 10
5.486
 20
31.455
 10
5.531
 20
31.4325
 10
5.5685
 20
31.4025
 10
5.5985
 20
31.365
 10
5.6135
 20
31.32
 10
5.621
 20
31.2675
 10
5.621
 20
31.23
 10
5.606
 20
31.1925
 10
5.5835
 20
31.1625
 10
5.5235
 20
31.1175
 10
5.561
 20
31.1025
 10
5.621
 20
31.0575
  0
LWPOLYLINE
  5
2A5
330
1F
100
AcDbEntity
  8
Silk_Screen
100
AcDbPolyline
 90
       57
 70
     1
 43
0.0
 10
6.01
 20
24.44
 10
6.04
 20
24.44
 10
6.07
 20
24.455
 10
6.095
 20
24.47
 10
6.12
 20
24.49
 10
6.15
 20
24.55
 10
6.05
 20
24.55
 10
6.035
 20
24.53
 10
6.015000000000001
 20
24.515
 10
5.975000000000001
 20
24.505
 10
5.95
 20
24.51
 10
5.925
 20
24.525
 10
5.91
 20
24.54
 10
5.9
 20
24.56
 10
5.895
 20
24.585
 10
5.89
 20
24.605
 10
6.155
 20
24.605
 10
6.155
 20
24.625
 10
6.15
 20
24.66
 10
6.140000000000001
 20
24.69
 10
6.125
 20
24.725
 10
6.105
 20
24.75
 10
6.08
 20
24.775
 10
6.055
 20
24.795
 10
6.02
 20
24.81
 10
5.98
 20
24.815
 10
5.975000000000001
 20
24.8145
 10
5.975000000000001
 20
24.74
 10
6.0
 20
24.735
 10
6.02
 20
24.72
 10
6.04
 20
24.7
 10
6.05
 20
24.68
 10
6.055
 20
24.655
 10
5.89
 20
24.655
 10
5.895
 20
24.68
 10
5.91
 20
24.705
 10
5.925
 20
24.72
 10
5.945
 20
24.735
 10
5.975000000000001
 20
24.74
 10
5.975000000000001
 20
24.8145
 10
5.94
 20
24.81
 10
5.905
 20
24.8
 10
5.875
 20
24.785
 10
5.850000000000001
 20
24.765
 10
5.83
 20
24.735
 10
5.815
 20
24.705
 10
5.805
 20
24.675
 10
5.8
 20
24.64
 10
5.8
 20
24.605
 10
5.805
 20
24.57
 10
5.815
 20
24.54
 10
5.83
 20
24.51
 10
5.850000000000001
 20
24.485
 10
5.875
 20
24.46
 10
5.905
 20
24.445
 10
5.94
 20
24.44
 10
5.98
 20
24.435
  0
LWPOLYLINE
  5
2A6
330
1F
100
AcDbEntity
  8
Silk_Screen
100
AcDbPolyline
 90
       57
 70
     1
 43
0.0
 10
6.01
 20
25.09
 10
6.04
 20
25.09
 10
6.07
 20
25.105
 10
6.095
 20
25.12
 10
6.12
 20
25.14
 10
6.15
 20
25.2
 10
6.05
 20
25.2
 10
6.035
 20
25.18
 10
6.015000000000001
 20
25.165
 10
5.975000000000001
 20
25.155
 10
5.95
 20
25.16
 10
5.925
 20
25.175
 10
5.91
 20
25.19
 10
5.9
 20
25.21
 10
5.895
 20
25.235
 10
5.89
 20
25.255
 10
6.155
 20
25.255
 10
6.155
 20
25.275
 10
6.15
 20
25.31
 10
6.140000000000001
 20
25.34
 10
6.125
 20
25.375
 10
6.105
 20
25.4
 10
6.08
 20
25.425
 10
6.055
 20
25.445
 10
6.02
 20
25.46
 10
5.98
 20
25.465
 10
5.975000000000001
 20
25.4645
 10
5.975000000000001
 20
25.39
 10
6.0
 20
25.385
 10
6.02
 20
25.37
 10
6.04
 20
25.35
 10
6.05
 20
25.33
 10
6.055
 20
25.305
 10
5.89
 20
25.305
 10
5.895
 20
25.33
 10
5.91
 20
25.355
 10
5.925
 20
25.37
 10
5.945
 20
25.385
 10
5.975000000000001
 20
25.39
 10
5.975000000000001
 20
25.4645
 10
5.94
 20
25.46
 10
5.905
 20
25.45
 10
5.875
 20
25.435
 10
5.850000000000001
 20
25.415
 10
5.83
 20
25.385
 10
5.815
 20
25.355
 10
5.805
 20
25.325
 10
5.8
 20
25.29
 10
5.8
 20
25.255
 10
5.805
 20
25.22
 10
5.815
 20
25.19
 10
5.83
 20
25.16
 10
5.850000000000001
 20
25.135
 10
5.875
 20
25.11
 10
5.905
 20
25.095
 10
5.94
 20
25.09
 10
5.98
 20
25.085
  0
LWPOLYLINE
  5
2A7
330
1F
100
AcDbEntity
  8
Silk_Screen
100
AcDbPolyline
 90
       10
 70
     1
 43
0.0
 10
5.8235
 20
27.795
 10
5.8235
 20
27.93
 10
6.221
 20
28.23
 10
5.8385
 20
28.23
 10
5.8385
 20
28.3425
 10
6.371
 20
28.3425
 10
6.371
 20
28.2075
 10
5.9885
 20
27.9075
 10
6.3635
 20
27.9075
 10
6.3635
 20
27.795
  0
LWPOLYLINE
  5
2A8
330
1F
100
AcDbEntity
  8
Silk_Screen
100
AcDbPolyline
 90
       73
 70
     1
 43
0.0
 10
6.1535
 20
30.72
 10
6.1985
 20
30.7275
 10
6.2435
 20
30.7575
 10
6.281
 20
30.7875
 10
6.311
 20
30.825
 10
6.341
 20
30.8775
 10
6.3635
 20
30.9225
 10
6.371
 20
30.9825
 10
6.386
 20
31.035
 10
6.386
 20
31.155
 10
6.371
 20
31.2075
 10
6.3635
 20
31.2675
 10
6.3335
 20
31.3275
 10
6.386
 20
31.4025
 10
6.311
 20
31.47
 10
6.266
 20
31.41
 10
6.2435
 20
31.4325
 10
6.236
 20
31.4375
 10
6.236
 20
31.1925
 10
6.2435
 20
31.1475
 10
6.251
 20
31.095
 10
6.2435
 20
31.0425
 10
6.2285
 20
30.9525
 10
6.2135
 20
30.915
 10
6.191
 20
30.8775
 10
6.161
 20
30.855
 10
6.131
 20
30.84
 10
6.101
 20
30.8325
 10
6.0635
 20
30.84
 10
6.0335
 20
30.855
 10
6.011
 20
30.8775
 10
6.236
 20
31.1925
 10
6.236
 20
31.4375
 10
6.1985
 20
31.4625
 10
6.1535
 20
31.4775
 10
6.101
 20
31.485
 10
6.101
 20
31.3575
 10
6.131
 20
31.35
 10
6.161
 20
31.335
 10
6.191
 20
31.3125
 10
5.9585
 20
30.9975
 10
5.951000000000001
 20
31.0425
 10
5.951000000000001
 20
31.1475
 10
5.9585
 20
31.1925
 10
5.9735
 20
31.2375
 10
5.9885
 20
31.275
 10
6.011
 20
31.3125
 10
6.0335
 20
31.335
 10
6.0635
 20
31.35
 10
6.101
 20
31.3575
 10
6.101
 20
31.485
 10
6.041
 20
31.4775
 10
5.996
 20
31.4625
 10
5.951000000000001
 20
31.4325
 10
5.9135
 20
31.4025
 10
5.8835
 20
31.365
 10
5.8535
 20
31.3125
 10
5.8385
 20
31.2675
 10
5.8235
 20
31.2075
 10
5.816
 20
31.155
 10
5.8085
 20
31.095
 10
5.816
 20
31.035
 10
5.8235
 20
30.9825
 10
5.8385
 20
30.9225
 10
5.8535
 20
30.8775
 10
5.861
 20
30.8625
 10
5.8085
 20
30.795
 10
5.891
 20
30.72
 10
5.936
 20
30.7725
 10
5.951000000000001
 20
30.7575
 10
5.996
 20
30.7275
 10
6.041
 20
30.72
 10
6.101
 20
30.7125
  0
LWPOLYLINE
  5
2A9
330
1F
100
AcDbEntity
  8
Silk_Screen
100
AcDbPolyline
 90
        4
 70
     1
 43
0.0
 10
5.9135
 20
27.1425
 10
5.9135
 20
27.2475
 10
6.2885
 20
27.2475
 10
6.2885
 20
27.1425
  0
LWPOLYLINE
  5
2AA
330
1F
100
AcDbEntity
  8
Silk_Screen
100
AcDbPolyline
 90
        4
 70
     1
 43
0.0
 10
6.0335
 20
30.36
 10
6.0335
 20
30.495
 10
6.176
 20
30.495
 10
6.176
 20
30.36
  0
LWPOLYLINE
  5
2AB
330
1F
100
AcDbEntity
  8
Silk_Screen
100
AcDbPolyline
 90
       27
 70
     1
 43
0.0
 10
6.236
 20
28.77
 10
6.236
 20
29.1075
 10
6.2285
 20
29.145
 10
6.2135
 20
29.175
 10
6.191
 20
29.1975
 10
6.161
 20
29.2125
 10
6.1235
 20
29.22
 10
6.086
 20
29.22
 10
6.0485
 20
29.205
 10
6.0185
 20
29.1825
 10
5.9735
 20
29.1225
 10
5.9585
 20
29.0475
 10
5.9585
 20
28.77
 10
5.8235
 20
28.77
 10
5.8235
 20
29.52
 10
5.9585
 20
29.52
 10
5.9585
 20
29.2575
 10
6.0035
 20
29.2875
 10
6.056
 20
29.3175
 10
6.161
 20
29.3325
 10
6.251
 20
29.3175
 10
6.2885
 20
29.295
 10
6.326000000000001
 20
29.265
 10
6.3485
 20
29.235
 10
6.3635
 20
29.19
 10
6.371
 20
29.145
 10
6.371
 20
28.77
  0
LWPOLYLINE
  5
2AC
330
1F
100
AcDbEntity
  8
Silk_Screen
100
AcDbPolyline
 90
       10
 70
     1
 43
0.0
 10
6.176
 20
29.8575
 10
6.2585
 20
29.8575
 10
6.2585
 20
29.745
 10
5.951000000000001
 20
29.745
 10
5.951000000000001
 20
29.8575
 10
6.0335
 20
29.8575
 10
6.0335
 20
30.18
 10
5.8985
 20
30.18
 10
5.8985
 20
30.285
 10
6.176
 20
30.285
  0
LWPOLYLINE
  5
2AD
330
1F
100
AcDbEntity
  8
Silk_Screen
100
AcDbPolyline
 90
       51
 70
     1
 43
0.0
 10
6.29
 20
25.255
 10
6.29
 20
25.29
 10
6.295
 20
25.325
 10
6.305
 20
25.355
 10
6.32
 20
25.385
 10
6.37
 20
25.435
 10
6.4
 20
25.45
 10
6.44
 20
25.46
 10
6.48
 20
25.465
 10
6.55
 20
25.455
 10
6.58
 20
25.44
 10
6.61
 20
25.42
 10
6.63
 20
25.4
 10
6.65
 20
25.37
 10
6.655
 20
25.33
 10
6.565
 20
25.33
 10
6.555
 20
25.35
 10
6.545
 20
25.365
 10
6.525
 20
25.375
 10
6.51
 20
25.38
 10
6.46
 20
25.38
 10
6.44
 20
25.37
 10
6.405
 20
25.335
 10
6.395
 20
25.31
 10
6.390000000000001
 20
25.285
 10
6.390000000000001
 20
25.26
 10
6.395
 20
25.235
 10
6.405
 20
25.215
 10
6.42
 20
25.195
 10
6.44
 20
25.18
 10
6.46
 20
25.17
 10
6.49
 20
25.165
 10
6.51
 20
25.165
 10
6.53
 20
25.175
 10
6.545
 20
25.185
 10
6.56
 20
25.205
 10
6.565
 20
25.225
 10
6.655
 20
25.225
 10
6.65
 20
25.19
 10
6.62
 20
25.14
 10
6.595
 20
25.12
 10
6.57
 20
25.105
 10
6.54
 20
25.09
 10
6.51
 20
25.09
 10
6.48
 20
25.085
 10
6.4
 20
25.095
 10
6.37
 20
25.115
 10
6.345
 20
25.135
 10
6.32
 20
25.16
 10
6.305
 20
25.19
 10
6.295
 20
25.225
  0
LWPOLYLINE
  5
2AE
330
1F
100
AcDbEntity
  8
Silk_Screen
100
AcDbPolyline
 90
       36
 70
     1
 43
0.0
 10
6.686
 20
26.82
 10
6.686
 20
27.0975
 10
7.0085
 20
27.0975
 10
7.046
 20
27.1125
 10
7.0835
 20
27.1425
 10
7.1135
 20
27.1725
 10
7.136
 20
27.2025
 10
7.151
 20
27.2475
 10
7.1585
 20
27.285
 10
7.166
 20
27.33
 10
7.151
 20
27.42
 10
7.136
 20
27.4575
 10
7.1135
 20
27.495
 10
7.0835
 20
27.525
 10
7.046
 20
27.5475
 10
7.0085
 20
27.5625
 10
6.9635
 20
27.57
 10
6.9485
 20
27.57
 10
6.686
 20
27.57
 10
6.686
 20
27.4425
 10
6.9485
 20
27.4425
 10
6.971
 20
27.4275
 10
6.9935
 20
27.405
 10
7.0085
 20
27.375
 10
7.016
 20
27.345
 10
7.016
 20
27.315
 10
7.0085
 20
27.285
 10
6.9935
 20
27.2625
 10
6.971
 20
27.24
 10
6.9485
 20
27.225
 10
6.911
 20
27.2175
 10
6.686
 20
27.2175
 10
6.686
 20
27.4425
 10
6.686
 20
27.57
 10
6.536
 20
27.57
 10
6.536
 20
26.82
  0
LWPOLYLINE
  5
2AF
330
1F
100
AcDbEntity
  8
Silk_Screen
100
AcDbPolyline
 90
       59
 70
     1
 43
0.0
 10
6.911
 20
29.745
 10
6.9635
 20
29.7525
 10
7.0085
 20
29.7825
 10
7.046
 20
29.8125
 10
7.076000000000001
 20
29.85
 10
7.0985
 20
29.895
 10
7.1135
 20
29.9475
 10
7.121
 20
29.9925
 10
7.121
 20
30.045
 10
7.1135
 20
30.0975
 10
7.0985
 20
30.1425
 10
7.076000000000001
 20
30.1875
 10
7.046
 20
30.225
 10
7.0085
 20
30.2625
 10
6.9635
 20
30.285
 10
6.911
 20
30.3
 10
6.851
 20
30.3075
 10
6.851
 20
30.195
 10
6.881
 20
30.1875
 10
6.911
 20
30.1725
 10
6.941
 20
30.15
 10
6.956
 20
30.1125
 10
6.971
 20
30.0825
 10
6.9785
 20
30.0375
 10
6.9785
 20
30.0
 10
6.971
 20
29.9625
 10
6.956
 20
29.925
 10
6.941
 20
29.895
 10
6.911
 20
29.865
 10
6.881
 20
29.85
 10
6.851
 20
29.8425
 10
6.8135
 20
29.85
 10
6.7835
 20
29.865
 10
6.7385
 20
29.925
 10
6.7235
 20
30.0
 10
6.7235
 20
30.0375
 10
6.731
 20
30.0825
 10
6.7385
 20
30.1125
 10
6.761
 20
30.15
 10
6.7835
 20
30.1725
 10
6.8135
 20
30.1875
 10
6.851
 20
30.195
 10
6.851
 20
30.3075
 10
6.791
 20
30.3
 10
6.731
 20
30.285
 10
6.686
 20
30.2625
 10
6.6485
 20
30.225
 10
6.6185
 20
30.1875
 10
6.596
 20
30.1425
 10
6.581
 20
30.0975
 10
6.5735
 20
30.045
 10
6.5735
 20
29.9925
 10
6.581
 20
29.9475
 10
6.596
 20
29.895
 10
6.6185
 20
29.85
 10
6.6485
 20
29.8125
 10
6.686
 20
29.7825
 10
6.731
 20
29.7525
 10
6.851
 20
29.7375
  0
LWPOLYLINE
  5
2B0
330
1F
100
AcDbEntity
  8
Silk_Screen
100
AcDbPolyline
 90
       17
 70
     1
 43
0.0
 10
6.565
 20
24.815
 10
6.615
 20
24.815
 10
6.615
 20
24.715
 10
6.55
 20
24.715
 10
6.525
 20
24.71
 10
6.51
 20
24.705
 10
6.495
 20
24.69
 10
6.475000000000001
 20
24.65
 10
6.475000000000001
 20
24.44
 10
6.375
 20
24.44
 10
6.375
 20
24.805
 10
6.465
 20
24.805
 10
6.465
 20
24.75
 10
6.48
 20
24.77
 10
6.495
 20
24.785
 10
6.515000000000001
 20
24.8
 10
6.54
 20
24.81
  0
LWPOLYLINE
  5
2B1
330
1F
100
AcDbEntity
  8
Silk_Screen
100
AcDbPolyline
 90
        4
 70
     1
 43
0.0
 10
6.765000000000001
 20
24.575
 10
6.765000000000001
 20
24.64
 10
7.18
 20
24.64
 10
7.18
 20
24.575
  0
LWPOLYLINE
  5
2B2
330
1F
100
AcDbEntity
  8
Silk_Screen
100
AcDbPolyline
 90
        4
 70
     1
 43
0.0
 10
6.765000000000001
 20
24.74
 10
6.765000000000001
 20
24.805
 10
7.18
 20
24.805
 10
7.18
 20
24.74
  0
LWPOLYLINE
  5
2B3
330
1F
100
AcDbEntity
  8
Silk_Screen
100
AcDbPolyline
 90
       17
 70
     1
 43
0.0
 10
6.986
 20
30.8325
 10
7.151
 20
30.8325
 10
7.151
 20
30.72
 10
6.671
 20
30.72
 10
6.671
 20
30.8325
 10
6.836
 20
30.8325
 10
6.836
 20
31.2225
 10
6.6335
 20
31.2225
 10
6.6335
 20
31.32
 10
6.671
 20
31.32
 10
6.716
 20
31.3275
 10
6.761
 20
31.3425
 10
6.7985
 20
31.3575
 10
6.8285
 20
31.3875
 10
6.851
 20
31.425
 10
6.8585
 20
31.47
 10
6.986
 20
31.47
  0
LWPOLYLINE
  5
2B4
330
1F
100
AcDbEntity
  8
Silk_Screen
100
AcDbPolyline
 90
       52
 70
     1
 43
0.0
 10
7.286
 20
28.77
 10
7.286
 20
28.83
 10
7.2935
 20
28.905
 10
7.3235
 20
28.9725
 10
7.361
 20
29.025
 10
7.406000000000001
 20
29.07
 10
7.5635
 20
29.16
 10
7.676
 20
29.205
 10
7.706
 20
29.22
 10
7.7285
 20
29.2425
 10
7.751
 20
29.2725
 10
7.7585
 20
29.31
 10
7.751
 20
29.3475
 10
7.7285
 20
29.37
 10
7.6985
 20
29.3925
 10
7.6685
 20
29.4
 10
7.631
 20
29.4075
 10
7.601
 20
29.4075
 10
7.556
 20
29.4
 10
7.5185
 20
29.3925
 10
7.481
 20
29.37
 10
7.451000000000001
 20
29.3475
 10
7.421
 20
29.2725
 10
7.286
 20
29.2725
 10
7.2935
 20
29.325
 10
7.316
 20
29.3775
 10
7.3535
 20
29.4225
 10
7.391
 20
29.46
 10
7.436
 20
29.49
 10
7.4885
 20
29.5125
 10
7.541
 20
29.5275
 10
7.601
 20
29.535
 10
7.646
 20
29.5275
 10
7.706
 20
29.52
 10
7.7585
 20
29.505
 10
7.8485
 20
29.445
 10
7.8785
 20
29.4075
 10
7.901
 20
29.355
 10
7.9085
 20
29.295
 10
7.901
 20
29.2425
 10
7.8785
 20
29.205
 10
7.8485
 20
29.1675
 10
7.811
 20
29.1375
 10
7.7735
 20
29.1225
 10
7.6085
 20
29.0475
 10
7.5785
 20
29.0325
 10
7.541
 20
29.01
 10
7.5035
 20
28.98
 10
7.4735
 20
28.9425
 10
7.451000000000001
 20
28.8975
 10
7.9085
 20
28.8975
 10
7.9085
 20
28.77
  0
LWPOLYLINE
  5
2B5
330
1F
100
AcDbEntity
  8
Silk_Screen
100
AcDbPolyline
 90
        4
 70
     1
 43
0.0
 10
7.4135
 20
28.1175
 10
7.4135
 20
28.2225
 10
7.7885
 20
28.2225
 10
7.7885
 20
28.1175
  0
LWPOLYLINE
  5
2B6
330
1F
100
AcDbEntity
  8
Silk_Screen
100
AcDbPolyline
 90
       16
 70
     1
 43
0.0
 10
7.425
 20
24.98
 10
7.425
 20
25.02
 10
7.44
 20
25.03
 10
7.46
 20
25.04
 10
7.47
 20
25.055
 10
7.48
 20
25.075
 10
7.48
 20
25.09
 10
7.425
 20
25.09
 10
7.425
 20
25.19
 10
7.525
 20
25.19
 10
7.525
 20
25.09
 10
7.52
 20
25.065
 10
7.51
 20
25.04
 10
7.495
 20
25.02
 10
7.475000000000001
 20
25.0
 10
7.45
 20
24.985
  0
LWPOLYLINE
  5
2B7
330
1F
100
AcDbEntity
  8
Silk_Screen
100
AcDbPolyline
 90
        4
 70
     1
 43
0.0
 10
7.425
 20
25.355
 10
7.425
 20
25.455
 10
7.525
 20
25.455
 10
7.525
 20
25.355
  0
LWPOLYLINE
  5
2B8
330
1F
100
AcDbEntity
  8
Silk_Screen
100
AcDbPolyline
 90
       17
 70
     1
 43
0.0
 10
7.565
 20
24.515
 10
7.675
 20
24.515
 10
7.675
 20
24.44
 10
7.355
 20
24.44
 10
7.355
 20
24.515
 10
7.465
 20
24.515
 10
7.465
 20
24.775
 10
7.33
 20
24.775
 10
7.33
 20
24.84
 10
7.355
 20
24.84
 10
7.385
 20
24.845
 10
7.415
 20
24.855
 10
7.44
 20
24.865
 10
7.46
 20
24.885
 10
7.475000000000001
 20
24.91
 10
7.48
 20
24.94
 10
7.565
 20
24.94
  0
LWPOLYLINE
  5
2B9
330
1F
100
AcDbEntity
  8
Silk_Screen
100
AcDbPolyline
 90
       28
 70
     1
 43
0.0
 10
7.721
 20
29.745
 10
7.721
 20
30.0675
 10
7.7135
 20
30.105
 10
7.6985
 20
30.135
 10
7.676
 20
30.15
 10
7.646
 20
30.165
 10
7.6085
 20
30.1725
 10
7.571
 20
30.165
 10
7.541
 20
30.15
 10
7.511
 20
30.1275
 10
7.4885
 20
30.105
 10
7.4735
 20
30.03
 10
7.4735
 20
29.745
 10
7.3235
 20
29.745
 10
7.3235
 20
30.2925
 10
7.4585
 20
30.2925
 10
7.4585
 20
30.21
 10
7.4885
 20
30.24
 10
7.5635
 20
30.285
 10
7.6085
 20
30.3
 10
7.661
 20
30.3075
 10
7.751
 20
30.2925
 10
7.7885
 20
30.27
 10
7.826000000000001
 20
30.24
 10
7.8485
 20
30.21
 10
7.8635
 20
30.165
 10
7.871
 20
30.12
 10
7.871
 20
29.745
  0
LWPOLYLINE
  5
2BA
330
1F
100
AcDbEntity
  8
Silk_Screen
100
AcDbPolyline
 90
       29
 70
     1
 43
0.0
 10
7.736
 20
26.82
 10
7.736
 20
26.91
 10
7.706
 20
26.88
 10
7.6685
 20
26.85
 10
7.631
 20
26.8275
 10
7.586
 20
26.82
 10
7.5335
 20
26.8125
 10
7.4885
 20
26.82
 10
7.451000000000001
 20
26.8275
 10
7.406000000000001
 20
26.8425
 10
7.376
 20
26.8725
 10
7.346
 20
26.91
 10
7.331
 20
26.9475
 10
7.3235
 20
26.9925
 10
7.3235
 20
27.3675
 10
7.4735
 20
27.3675
 10
7.4735
 20
27.045
 10
7.481
 20
27.0075
 10
7.496
 20
26.985
 10
7.526
 20
26.9625
 10
7.556
 20
26.9475
 10
7.6235
 20
26.9475
 10
7.6535
 20
26.9625
 10
7.6835
 20
26.985
 10
7.706
 20
27.015
 10
7.721
 20
27.045
 10
7.721
 20
27.3675
 10
7.871
 20
27.3675
 10
7.871
 20
26.82
  0
LWPOLYLINE
  5
2BB
330
1F
100
AcDbEntity
  8
Silk_Screen
100
AcDbPolyline
 90
       12
 70
     1
 43
0.0
 10
7.676
 20
31.005
 10
7.871
 20
30.72
 10
7.721
 20
30.72
 10
7.601
 20
30.9075
 10
7.4735
 20
30.72
 10
7.3235
 20
30.72
 10
7.526
 20
31.005
 10
7.346
 20
31.2675
 10
7.4885
 20
31.2675
 10
7.601
 20
31.11
 10
7.7135
 20
31.2675
 10
7.8485
 20
31.2675
  0
LWPOLYLINE
  5
2BC
330
1F
100
AcDbEntity
  8
Silk_Screen
100
AcDbPolyline
 90
        4
 70
     1
 43
0.0
 10
7.925
 20
24.44
 10
7.925
 20
24.54
 10
8.025
 20
24.54
 10
8.025
 20
24.44
  0
LWPOLYLINE
  5
2BD
330
1F
100
AcDbEntity
  8
Silk_Screen
100
AcDbPolyline
 90
       73
 70
     1
 43
0.0
 10
8.4035
 20
28.77
 10
8.448500000000001
 20
28.7775
 10
8.493500000000001
 20
28.8075
 10
8.531
 20
28.8375
 10
8.561
 20
28.875
 10
8.591
 20
28.9275
 10
8.6135
 20
28.9725
 10
8.621
 20
29.0325
 10
8.636000000000001
 20
29.085
 10
8.636000000000001
 20
29.205
 10
8.621
 20
29.2575
 10
8.6135
 20
29.3175
 10
8.5835
 20
29.3775
 10
8.636000000000001
 20
29.4525
 10
8.561
 20
29.52
 10
8.516
 20
29.46
 10
8.493500000000001
 20
29.4825
 10
8.486
 20
29.4875
 10
8.486
 20
29.2425
 10
8.493500000000001
 20
29.1975
 10
8.501
 20
29.145
 10
8.493500000000001
 20
29.0925
 10
8.4785
 20
29.0025
 10
8.4635
 20
28.965
 10
8.441
 20
28.9275
 10
8.411
 20
28.905
 10
8.381
 20
28.89
 10
8.351
 20
28.8825
 10
8.3135
 20
28.89
 10
8.2835
 20
28.905
 10
8.261000000000001
 20
28.9275
 10
8.486
 20
29.2425
 10
8.486
 20
29.4875
 10
8.448500000000001
 20
29.5125
 10
8.4035
 20
29.5275
 10
8.351
 20
29.535
 10
8.351
 20
29.4075
 10
8.381
 20
29.4
 10
8.411
 20
29.385
 10
8.441
 20
29.3625
 10
8.2085
 20
29.0475
 10
8.201
 20
29.0925
 10
8.201
 20
29.1975
 10
8.2085
 20
29.2425
 10
8.2235
 20
29.2875
 10
8.2385
 20
29.325
 10
8.261000000000001
 20
29.3625
 10
8.2835
 20
29.385
 10
8.3135
 20
29.4
 10
8.351
 20
29.4075
 10
8.351
 20
29.535
 10
8.291
 20
29.5275
 10
8.246
 20
29.5125
 10
8.201
 20
29.4825
 10
8.1635
 20
29.4525
 10
8.1335
 20
29.415
 10
8.1035
 20
29.3625
 10
8.0885
 20
29.3175
 10
8.073500000000001
 20
29.2575
 10
8.066
 20
29.205
 10
8.0585
 20
29.145
 10
8.066
 20
29.085
 10
8.073500000000001
 20
29.0325
 10
8.0885
 20
28.9725
 10
8.1035
 20
28.9275
 10
8.111
 20
28.9125
 10
8.0585
 20
28.845
 10
8.141
 20
28.77
 10
8.186
 20
28.8225
 10
8.201
 20
28.8075
 10
8.246
 20
28.7775
 10
8.291
 20
28.77
 10
8.351
 20
28.7625
  0
LWPOLYLINE
  5
2BE
330
1F
100
AcDbEntity
  8
Silk_Screen
100
AcDbPolyline
 90
       10
 70
     1
 43
0.0
 10
8.265
 20
25.09
 10
8.265
 20
25.59
 10
8.68
 20
25.59
 10
8.68
 20
25.505
 10
8.365
 20
25.505
 10
8.365
 20
25.38
 10
8.64
 20
25.38
 10
8.64
 20
25.3
 10
8.365
 20
25.3
 10
8.365
 20
25.09
  0
LWPOLYLINE
  5
2BF
330
1F
100
AcDbEntity
  8
Silk_Screen
100
AcDbPolyline
 90
       10
 70
     1
 43
0.0
 10
8.426
 20
26.9325
 10
8.5235
 20
26.9325
 10
8.5235
 20
26.82
 10
8.171
 20
26.82
 10
8.171
 20
26.9325
 10
8.276
 20
26.9325
 10
8.276
 20
27.4575
 10
8.1335
 20
27.4575
 10
8.1335
 20
27.57
 10
8.426
 20
27.57
  0
LWPOLYLINE
  5
2C0
330
1F
100
AcDbEntity
  8
Silk_Screen
100
AcDbPolyline
 90
       52
 70
     1
 43
0.0
 10
8.675
 20
24.645
 10
8.68
 20
24.605
 10
8.68
 20
24.57
 10
8.65
 20
24.51
 10
8.625
 20
24.485
 10
8.6
 20
24.465
 10
8.57
 20
24.45
 10
8.540000000000001
 20
24.44
 10
8.505
 20
24.44
 10
8.475
 20
24.435
 10
8.435
 20
24.44
 10
8.4
 20
24.44
 10
8.365
 20
24.455
 10
8.335
 20
24.47
 10
8.305
 20
24.495
 10
8.28
 20
24.525
 10
8.265
 20
24.565
 10
8.355
 20
24.565
 10
8.375
 20
24.54
 10
8.395
 20
24.525
 10
8.42
 20
24.515
 10
8.45
 20
24.51
 10
8.475
 20
24.505
 10
8.525
 20
24.515
 10
8.55
 20
24.53
 10
8.57
 20
24.545
 10
8.585
 20
24.57
 10
8.59
 20
24.6
 10
8.585
 20
24.625
 10
8.575000000000001
 20
24.645
 10
8.555
 20
24.665
 10
8.515
 20
24.685
 10
8.49
 20
24.69
 10
8.455
 20
24.69
 10
8.42
 20
24.68
 10
8.39
 20
24.665
 10
8.365
 20
24.65
 10
8.28
 20
24.655
 10
8.33
 20
24.94
 10
8.655
 20
24.94
 10
8.655
 20
24.855
 10
8.4
 20
24.855
 10
8.375
 20
24.725
 10
8.41
 20
24.745
 10
8.45
 20
24.76
 10
8.49
 20
24.765
 10
8.525
 20
24.765
 10
8.56
 20
24.755
 10
8.59
 20
24.745
 10
8.620000000000001
 20
24.725
 10
8.645
 20
24.705
 10
8.665000000000001
 20
24.675
  0
LWPOLYLINE
  5
2C1
330
1F
100
AcDbEntity
  8
Silk_Screen
100
AcDbPolyline
 90
       12
 70
     1
 43
0.0
 10
8.786
 20
30.72
 10
8.786
 20
31.47
 10
9.4085
 20
31.47
 10
9.4085
 20
31.3425
 10
8.936
 20
31.3425
 10
8.936
 20
31.17
 10
9.3635
 20
31.17
 10
9.3635
 20
31.0425
 10
8.936
 20
31.0425
 10
8.936
 20
30.8475
 10
9.4085
 20
30.8475
 10
9.4085
 20
30.72
  0
LWPOLYLINE
  5
2C2
330
1F
100
AcDbEntity
  8
Silk_Screen
100
AcDbPolyline
 90
       73
 70
     1
 43
0.0
 10
9.1535
 20
29.745
 10
9.198500000000001
 20
29.7525
 10
9.243500000000001
 20
29.7825
 10
9.281
 20
29.8125
 10
9.311
 20
29.85
 10
9.341000000000001
 20
29.9025
 10
9.3635
 20
29.9475
 10
9.371
 20
30.0075
 10
9.386000000000001
 20
30.06
 10
9.386000000000001
 20
30.18
 10
9.371
 20
30.2325
 10
9.3635
 20
30.2925
 10
9.3335
 20
30.3525
 10
9.386000000000001
 20
30.4275
 10
9.311
 20
30.495
 10
9.266
 20
30.435
 10
9.243500000000001
 20
30.4575
 10
9.236
 20
30.4625
 10
9.236
 20
30.2175
 10
9.243500000000001
 20
30.1725
 10
9.251
 20
30.12
 10
9.243500000000001
 20
30.0675
 10
9.2285
 20
29.9775
 10
9.2135
 20
29.94
 10
9.191
 20
29.9025
 10
9.161
 20
29.88
 10
9.131
 20
29.865
 10
9.101
 20
29.8575
 10
9.0635
 20
29.865
 10
9.0335
 20
29.88
 10
9.011000000000001
 20
29.9025
 10
9.236
 20
30.2175
 10
9.236
 20
30.4625
 10
9.198500000000001
 20
30.4875
 10
9.1535
 20
30.5025
 10
9.101
 20
30.51
 10
9.101
 20
30.3825
 10
9.131
 20
30.375
 10
9.161
 20
30.36
 10
9.191
 20
30.3375
 10
8.9585
 20
30.0225
 10
8.951
 20
30.0675
 10
8.951
 20
30.1725
 10
8.9585
 20
30.2175
 10
8.9735
 20
30.2625
 10
8.9885
 20
30.3
 10
9.011000000000001
 20
30.3375
 10
9.0335
 20
30.36
 10
9.0635
 20
30.375
 10
9.101
 20
30.3825
 10
9.101
 20
30.51
 10
9.041
 20
30.5025
 10
8.996
 20
30.4875
 10
8.951
 20
30.4575
 10
8.9135
 20
30.4275
 10
8.8835
 20
30.39
 10
8.8535
 20
30.3375
 10
8.8385
 20
30.2925
 10
8.823500000000001
 20
30.2325
 10
8.816
 20
30.18
 10
8.8085
 20
30.12
 10
8.816
 20
30.06
 10
8.823500000000001
 20
30.0075
 10
8.8385
 20
29.9475
 10
8.8535
 20
29.9025
 10
8.861
 20
29.8875
 10
8.8085
 20
29.82
 10
8.891
 20
29.745
 10
8.936
 20
29.7975
 10
8.951
 20
29.7825
 10
8.996
 20
29.7525
 10
9.041
 20
29.745
 10
9.101
 20
29.7375
  0
LWPOLYLINE
  5
2C3
330
1F
100
AcDbEntity
  8
Silk_Screen
100
AcDbPolyline
 90
       37
 70
     1
 43
0.0
 10
9.075000000000001
 20
24.44
 10
9.075000000000001
 20
24.715
 10
9.07
 20
24.73
 10
9.05
 20
24.74
 10
9.035
 20
24.735
 10
9.015
 20
24.715
 10
9.015
 20
24.44
 10
8.93
 20
24.44
 10
8.93
 20
24.73
 10
8.92
 20
24.735
 10
8.905
 20
24.74
 10
8.89
 20
24.735
 10
8.88
 20
24.725
 10
8.875
 20
24.715
 10
8.875
 20
24.44
 10
8.790000000000001
 20
24.44
 10
8.790000000000001
 20
24.805
 10
8.865
 20
24.805
 10
8.865
 20
24.765
 10
8.88
 20
24.785
 10
8.895
 20
24.8
 10
8.915000000000001
 20
24.81
 10
8.94
 20
24.815
 10
8.96
 20
24.81
 10
8.98
 20
24.8
 10
8.995000000000001
 20
24.785
 10
9.005
 20
24.765
 10
9.02
 20
24.785
 10
9.035
 20
24.8
 10
9.055
 20
24.81
 10
9.08
 20
24.815
 10
9.105
 20
24.81
 10
9.125
 20
24.805
 10
9.14
 20
24.79
 10
9.15
 20
24.77
 10
9.155
 20
24.75
 10
9.155
 20
24.44
  0
LWPOLYLINE
  5
2C4
330
1F
100
AcDbEntity
  8
Silk_Screen
100
AcDbPolyline
 90
       45
 70
     1
 43
0.0
 10
8.865
 20
25.09
 10
8.865
 20
25.28
 10
9.01
 20
25.28
 10
9.03
 20
25.27
 10
9.05
 20
25.23
 10
9.055
 20
25.155
 10
9.06
 20
25.13
 10
9.075000000000001
 20
25.09
 10
9.18
 20
25.09
 10
9.165000000000001
 20
25.115
 10
9.155
 20
25.155
 10
9.15
 20
25.23
 10
9.145
 20
25.255
 10
9.135
 20
25.275
 10
9.120000000000001
 20
25.295
 10
9.105
 20
25.31
 10
9.08
 20
25.325
 10
9.105
 20
25.34
 10
9.13
 20
25.36
 10
9.145
 20
25.385
 10
9.155
 20
25.41
 10
9.155
 20
25.475
 10
9.14
 20
25.5
 10
9.125
 20
25.53
 10
9.105
 20
25.55
 10
9.08
 20
25.565
 10
9.05
 20
25.58
 10
9.01
 20
25.5865
 10
8.99
 20
25.59
 10
8.865
 20
25.59
 10
8.865
 20
25.505
 10
9.01
 20
25.505
 10
9.03
 20
25.49
 10
9.040000000000001
 20
25.475
 10
9.05
 20
25.455
 10
9.05
 20
25.415
 10
9.040000000000001
 20
25.395
 10
9.03
 20
25.38
 10
9.01
 20
25.37
 10
8.99
 20
25.365
 10
8.865
 20
25.365
 10
8.865
 20
25.505
 10
8.865
 20
25.59
 10
8.765
 20
25.59
 10
8.765
 20
25.09
  0
LWPOLYLINE
  5
2C5
330
1F
100
AcDbEntity
  8
Silk_Screen
100
AcDbPolyline
 90
       10
 70
     1
 43
0.0
 10
9.176
 20
26.9325
 10
9.2735
 20
26.9325
 10
9.2735
 20
26.82
 10
8.921
 20
26.82
 10
8.921
 20
26.9325
 10
9.026
 20
26.9325
 10
9.026
 20
27.4575
 10
8.8835
 20
27.4575
 10
8.8835
 20
27.57
 10
9.176
 20
27.57
  0
LWPOLYLINE
  5
2C6
330
1F
100
AcDbEntity
  8
Silk_Screen
100
AcDbPolyline
 90
       17
 70
     1
 43
0.0
 10
9.236
 20
27.9075
 10
9.401
 20
27.9075
 10
9.401
 20
27.795
 10
8.921
 20
27.795
 10
8.921
 20
27.9075
 10
9.086
 20
27.9075
 10
9.086
 20
28.2975
 10
8.8835
 20
28.2975
 10
8.8835
 20
28.395
 10
8.921
 20
28.395
 10
8.966
 20
28.4025
 10
9.011000000000001
 20
28.4175
 10
9.0485
 20
28.4325
 10
9.0785
 20
28.4625
 10
9.101
 20
28.5
 10
9.1085
 20
28.545
 10
9.236
 20
28.545
  0
LWPOLYLINE
  5
2C7
330
1F
100
AcDbEntity
  8
Silk_Screen
100
AcDbPolyline
 90
       17
 70
     1
 43
0.0
 10
9.236
 20
28.8825
 10
9.401
 20
28.8825
 10
9.401
 20
28.77
 10
8.921
 20
28.77
 10
8.921
 20
28.8825
 10
9.086
 20
28.8825
 10
9.086
 20
29.2725
 10
8.8835
 20
29.2725
 10
8.8835
 20
29.37
 10
8.921
 20
29.37
 10
8.966
 20
29.3775
 10
9.011000000000001
 20
29.3925
 10
9.0485
 20
29.4075
 10
9.0785
 20
29.4375
 10
9.101
 20
29.475
 10
9.1085
 20
29.52
 10
9.236
 20
29.52
  0
LWPOLYLINE
  5
2C8
330
1F
100
AcDbEntity
  8
Silk_Screen
100
AcDbPolyline
 90
       37
 70
     1
 43
0.0
 10
9.575000000000001
 20
24.44
 10
9.575000000000001
 20
24.715
 10
9.57
 20
24.73
 10
9.55
 20
24.74
 10
9.535
 20
24.735
 10
9.515
 20
24.715
 10
9.515
 20
24.44
 10
9.43
 20
24.44
 10
9.43
 20
24.73
 10
9.42
 20
24.735
 10
9.405
 20
24.74
 10
9.39
 20
24.735
 10
9.38
 20
24.725
 10
9.375
 20
24.715
 10
9.375
 20
24.44
 10
9.290000000000001
 20
24.44
 10
9.290000000000001
 20
24.805
 10
9.365
 20
24.805
 10
9.365
 20
24.765
 10
9.38
 20
24.785
 10
9.395
 20
24.8
 10
9.415000000000001
 20
24.81
 10
9.44
 20
24.815
 10
9.46
 20
24.81
 10
9.48
 20
24.8
 10
9.495000000000001
 20
24.785
 10
9.505
 20
24.765
 10
9.52
 20
24.785
 10
9.535
 20
24.8
 10
9.555
 20
24.81
 10
9.58
 20
24.815
 10
9.605
 20
24.81
 10
9.625
 20
24.805
 10
9.64
 20
24.79
 10
9.65
 20
24.77
 10
9.655
 20
24.75
 10
9.655
 20
24.44
  0
LWPOLYLINE
  5
2C9
330
1F
100
AcDbEntity
  8
Silk_Screen
100
AcDbPolyline
 90
       73
 70
     1
 43
0.0
 10
9.903500000000001
 20
27.795
 10
9.948500000000001
 20
27.8025
 10
9.993500000000001
 20
27.8325
 10
10.031
 20
27.8625
 10
10.061
 20
27.9
 10
10.091
 20
27.9525
 10
10.1135
 20
27.9975
 10
10.121
 20
28.0575
 10
10.136
 20
28.11
 10
10.136
 20
28.23
 10
10.121
 20
28.2825
 10
10.1135
 20
28.3425
 10
10.0835
 20
28.4025
 10
10.136
 20
28.4775
 10
10.061
 20
28.545
 10
10.016
 20
28.485
 10
9.993500000000001
 20
28.5075
 10
9.986
 20
28.5125
 10
9.986
 20
28.2675
 10
9.993500000000001
 20
28.2225
 10
10.001
 20
28.17
 10
9.993500000000001
 20
28.1175
 10
9.9785
 20
28.0275
 10
9.9635
 20
27.99
 10
9.941
 20
27.9525
 10
9.911
 20
27.93
 10
9.881
 20
27.915
 10
9.851
 20
27.9075
 10
9.8135
 20
27.915
 10
9.7835
 20
27.93
 10
9.761000000000001
 20
27.9525
 10
9.986
 20
28.2675
 10
9.986
 20
28.5125
 10
9.948500000000001
 20
28.5375
 10
9.903500000000001
 20
28.5525
 10
9.851
 20
28.56
 10
9.851
 20
28.4325
 10
9.881
 20
28.425
 10
9.911
 20
28.41
 10
9.941
 20
28.3875
 10
9.7085
 20
28.0725
 10
9.701
 20
28.1175
 10
9.701
 20
28.2225
 10
9.7085
 20
28.2675
 10
9.7235
 20
28.3125
 10
9.7385
 20
28.35
 10
9.761000000000001
 20
28.3875
 10
9.7835
 20
28.41
 10
9.8135
 20
28.425
 10
9.851
 20
28.4325
 10
9.851
 20
28.56
 10
9.791
 20
28.5525
 10
9.746
 20
28.5375
 10
9.701
 20
28.5075
 10
9.6635
 20
28.4775
 10
9.6335
 20
28.44
 10
9.6035
 20
28.3875
 10
9.5885
 20
28.3425
 10
9.573500000000001
 20
28.2825
 10
9.566
 20
28.23
 10
9.5585
 20
28.17
 10
9.566
 20
28.11
 10
9.573500000000001
 20
28.0575
 10
9.5885
 20
27.9975
 10
9.6035
 20
27.9525
 10
9.611
 20
27.9375
 10
9.5585
 20
27.87
 10
9.641
 20
27.795
 10
9.686
 20
27.8475
 10
9.701
 20
27.8325
 10
9.746
 20
27.8025
 10
9.791
 20
27.795
 10
9.851
 20
27.7875
  0
LWPOLYLINE
  5
2CA
330
1F
100
AcDbEntity
  8
Silk_Screen
100
AcDbPolyline
 90
       17
 70
     1
 43
0.0
 10
9.605
 20
25.09
 10
9.605
 20
25.205
 10
9.68
 20
25.205
 10
9.68
 20
25.28
 10
9.605
 20
25.28
 10
9.605
 20
25.59
 10
9.515
 20
25.59
 10
9.515
 20
25.48
 10
9.515
 20
25.28
 10
9.365
 20
25.28
 10
9.515
 20
25.48
 10
9.515
 20
25.59
 10
9.5
 20
25.59
 10
9.265
 20
25.275
 10
9.265
 20
25.205
 10
9.515
 20
25.205
 10
9.515
 20
25.09
  0
LWPOLYLINE
  5
2CB
330
1F
100
AcDbEntity
  8
Silk_Screen
100
AcDbPolyline
 90
        7
 70
     1
 43
0.0
 10
9.536
 20
31.47
 10
9.701
 20
31.47
 10
9.851
 20
30.9075
 10
10.001
 20
31.47
 10
10.1585
 20
31.47
 10
9.926
 20
30.72
 10
9.776
 20
30.72
  0
LWPOLYLINE
  5
2CC
330
1F
100
AcDbEntity
  8
Silk_Screen
100
AcDbPolyline
 90
        4
 70
     1
 43
0.0
 10
9.776
 20
29.745
 10
9.776
 20
29.895
 10
9.926
 20
29.895
 10
9.926
 20
29.745
  0
LWPOLYLINE
  5
2CD
330
1F
100
AcDbEntity
  8
Silk_Screen
100
AcDbPolyline
 90
       73
 70
     1
 43
0.0
 10
10.1435
 20
29.07
 10
10.1585
 20
29.0325
 10
10.1585
 20
28.995
 10
10.151
 20
28.935
 10
10.136
 20
28.89
 10
10.0985
 20
28.845
 10
10.061
 20
28.815
 10
10.016
 20
28.7925
 10
9.9635
 20
28.77
 10
9.911
 20
28.77
 10
9.8585
 20
28.7625
 10
9.806000000000001
 20
28.77
 10
9.746
 20
28.7775
 10
9.6935
 20
28.8
 10
9.6485
 20
28.83
 10
9.611
 20
28.8675
 10
9.573500000000001
 20
28.9125
 10
9.551
 20
28.965
 10
9.536
 20
29.0175
 10
9.671
 20
29.0175
 10
9.686
 20
28.98
 10
9.7085
 20
28.9425
 10
9.7385
 20
28.9125
 10
9.776
 20
28.8975
 10
9.821
 20
28.8825
 10
9.896
 20
28.8825
 10
9.971
 20
28.9125
 10
10.001
 20
28.935
 10
10.016
 20
28.965
 10
10.0235
 20
29.01
 10
10.016
 20
29.04
 10
9.993500000000001
 20
29.07
 10
9.9635
 20
29.0925
 10
9.9335
 20
29.1075
 10
9.746
 20
29.1075
 10
9.746
 20
29.205
 10
9.8735
 20
29.205
 10
9.903500000000001
 20
29.2125
 10
9.9635
 20
29.2425
 10
9.9785
 20
29.2725
 10
9.986
 20
29.31
 10
9.9785
 20
29.34
 10
9.956
 20
29.37
 10
9.9335
 20
29.385
 10
9.896
 20
29.4
 10
9.866
 20
29.4075
 10
9.7985
 20
29.4075
 10
9.761000000000001
 20
29.3925
 10
9.731
 20
29.3775
 10
9.701
 20
29.355
 10
9.6785
 20
29.325
 10
9.671
 20
29.28
 10
9.551
 20
29.28
 10
9.5585
 20
29.34
 10
9.581
 20
29.385
 10
9.611
 20
29.43
 10
9.6485
 20
29.4675
 10
9.6935
 20
29.4975
 10
9.7985
 20
29.5275
 10
9.851
 20
29.535
 10
9.941
 20
29.52
 10
9.986
 20
29.505
 10
10.031
 20
29.4825
 10
10.0685
 20
29.4525
 10
10.0985
 20
29.415
 10
10.1135
 20
29.37
 10
10.121
 20
29.3175
 10
10.121
 20
29.28
 10
10.106
 20
29.2425
 10
10.0835
 20
29.2125
 10
10.0235
 20
29.1675
 10
10.061
 20
29.1525
 10
10.121
 20
29.1075
  0
LWPOLYLINE
  5
2CE
330
1F
100
AcDbEntity
  8
Silk_Screen
100
AcDbPolyline
 90
       73
 70
     1
 43
0.0
 10
10.6535
 20
27.795
 10
10.6985
 20
27.8025
 10
10.7435
 20
27.8325
 10
10.781
 20
27.8625
 10
10.811
 20
27.9
 10
10.841
 20
27.9525
 10
10.8635
 20
27.9975
 10
10.871
 20
28.0575
 10
10.886
 20
28.11
 10
10.886
 20
28.23
 10
10.871
 20
28.2825
 10
10.8635
 20
28.3425
 10
10.8335
 20
28.4025
 10
10.886
 20
28.4775
 10
10.811
 20
28.545
 10
10.766
 20
28.485
 10
10.7435
 20
28.5075
 10
10.736
 20
28.5125
 10
10.736
 20
28.2675
 10
10.7435
 20
28.2225
 10
10.751
 20
28.17
 10
10.7435
 20
28.1175
 10
10.7285
 20
28.0275
 10
10.7135
 20
27.99
 10
10.691
 20
27.9525
 10
10.661
 20
27.93
 10
10.631
 20
27.915
 10
10.601
 20
27.9075
 10
10.5635
 20
27.915
 10
10.5335
 20
27.93
 10
10.511
 20
27.9525
 10
10.736
 20
28.2675
 10
10.736
 20
28.5125
 10
10.6985
 20
28.5375
 10
10.6535
 20
28.5525
 10
10.601
 20
28.56
 10
10.601
 20
28.4325
 10
10.631
 20
28.425
 10
10.661
 20
28.41
 10
10.691
 20
28.3875
 10
10.4585
 20
28.0725
 10
10.451
 20
28.1175
 10
10.451
 20
28.2225
 10
10.4585
 20
28.2675
 10
10.4735
 20
28.3125
 10
10.4885
 20
28.35
 10
10.511
 20
28.3875
 10
10.5335
 20
28.41
 10
10.5635
 20
28.425
 10
10.601
 20
28.4325
 10
10.601
 20
28.56
 10
10.541
 20
28.5525
 10
10.496
 20
28.5375
 10
10.451
 20
28.5075
 10
10.4135
 20
28.4775
 10
10.3835
 20
28.44
 10
10.3535
 20
28.3875
 10
10.3385
 20
28.3425
 10
10.3235
 20
28.2825
 10
10.316
 20
28.23
 10
10.3085
 20
28.17
 10
10.316
 20
28.11
 10
10.3235
 20
28.0575
 10
10.3385
 20
27.9975
 10
10.3535
 20
27.9525
 10
10.361
 20
27.9375
 10
10.3085
 20
27.87
 10
10.391
 20
27.795
 10
10.436
 20
27.8475
 10
10.451
 20
27.8325
 10
10.496
 20
27.8025
 10
10.541
 20
27.795
 10
10.601
 20
27.7875
  0
LWPOLYLINE
  5
2CF
330
1F
100
AcDbEntity
  8
Silk_Screen
100
AcDbPolyline
 90
       16
 70
     1
 43
0.0
 10
10.425
 20
24.33
 10
10.425
 20
24.37
 10
10.44
 20
24.38
 10
10.46
 20
24.39
 10
10.47
 20
24.405
 10
10.48
 20
24.425
 10
10.48
 20
24.44
 10
10.425
 20
24.44
 10
10.425
 20
24.54
 10
10.525
 20
24.54
 10
10.525
 20
24.44
 10
10.52
 20
24.415
 10
10.51
 20
24.39
 10
10.495
 20
24.37
 10
10.475
 20
24.35
 10
10.45
 20
24.335
  0
LWPOLYLINE
  5
2D0
330
1F
100
AcDbEntity
  8
Silk_Screen
100
AcDbPolyline
 90
        4
 70
     1
 43
0.0
 10
10.425
 20
24.705
 10
10.425
 20
24.805
 10
10.525
 20
24.805
 10
10.525
 20
24.705
  0
LWPOLYLINE
  5
2D1
330
1F
100
AcDbEntity
  8
Silk_Screen
100
AcDbPolyline
 90
       16
 70
     1
 43
0.0
 10
10.425
 20
24.98
 10
10.425
 20
25.02
 10
10.44
 20
25.03
 10
10.46
 20
25.04
 10
10.47
 20
25.055
 10
10.48
 20
25.075
 10
10.48
 20
25.09
 10
10.425
 20
25.09
 10
10.425
 20
25.19
 10
10.525
 20
25.19
 10
10.525
 20
25.09
 10
10.52
 20
25.065
 10
10.51
 20
25.04
 10
10.495
 20
25.02
 10
10.475
 20
25.0
 10
10.45
 20
24.985
  0
LWPOLYLINE
  5
2D2
330
1F
100
AcDbEntity
  8
Silk_Screen
100
AcDbPolyline
 90
        4
 70
     1
 43
0.0
 10
10.425
 20
25.355
 10
10.425
 20
25.455
 10
10.525
 20
25.455
 10
10.525
 20
25.355
  0
LWPOLYLINE
  5
2D3
330
1F
100
AcDbEntity
  8
Silk_Screen
100
AcDbPolyline
 90
       53
 70
     1
 43
0.0
 10
10.6835
 20
30.72
 10
10.736
 20
30.7275
 10
10.781
 20
30.735
 10
10.8185
 20
30.7575
 10
10.856
 20
30.7875
 10
10.886
 20
30.825
 10
10.901
 20
30.87
 10
10.9085
 20
30.9225
 10
10.9085
 20
30.9675
 10
10.8635
 20
31.0425
 10
10.826
 20
31.0725
 10
10.7885
 20
31.095
 10
10.751
 20
31.11
 10
10.7885
 20
31.125
 10
10.8185
 20
31.14
 10
10.8485
 20
31.17
 10
10.871
 20
31.2075
 10
10.886
 20
31.2825
 10
10.8785
 20
31.335
 10
10.8335
 20
31.41
 10
10.796
 20
31.4325
 10
10.751
 20
31.455
 10
10.676
 20
31.4675
 10
10.661
 20
31.47
 10
10.436
 20
31.47
 10
10.436
 20
31.3425
 10
10.676
 20
31.3425
 10
10.721
 20
31.3125
 10
10.7285
 20
31.2825
 10
10.736
 20
31.26
 10
10.7285
 20
31.23
 10
10.721
 20
31.2075
 10
10.6985
 20
31.185
 10
10.691
 20
31.1825
 10
10.676
 20
31.1775
 10
10.646
 20
31.17
 10
10.436
 20
31.17
 10
10.436
 20
31.0425
 10
10.691
 20
31.0425
 10
10.721
 20
31.0275
 10
10.7435
 20
31.005
 10
10.7585
 20
30.975
 10
10.7585
 20
30.915
 10
10.7435
 20
30.885
 10
10.721
 20
30.8625
 10
10.691
 20
30.8475
 10
10.436
 20
30.8475
 10
10.436
 20
31.0425
 10
10.436
 20
31.17
 10
10.436
 20
31.3425
 10
10.436
 20
31.47
 10
10.286
 20
31.47
 10
10.286
 20
30.72
  0
LWPOLYLINE
  5
2D4
330
1F
100
AcDbEntity
  8
Silk_Screen
100
AcDbPolyline
 90
       52
 70
     1
 43
0.0
 10
10.901
 20
30.0525
 10
10.9085
 20
29.9925
 10
10.9085
 20
29.94
 10
10.8635
 20
29.85
 10
10.826
 20
29.8125
 10
10.7885
 20
29.7825
 10
10.7435
 20
29.76
 10
10.6985
 20
29.745
 10
10.646
 20
29.745
 10
10.601
 20
29.7375
 10
10.541
 20
29.745
 10
10.4885
 20
29.745
 10
10.436
 20
29.7675
 10
10.391
 20
29.79
 10
10.346
 20
29.8275
 10
10.3085
 20
29.8725
 10
10.286
 20
29.9325
 10
10.421
 20
29.9325
 10
10.451
 20
29.895
 10
10.481
 20
29.8725
 10
10.5185
 20
29.8575
 10
10.5635
 20
29.85
 10
10.601
 20
29.8425
 10
10.676
 20
29.8575
 10
10.7135
 20
29.88
 10
10.7435
 20
29.9025
 10
10.766
 20
29.94
 10
10.7735
 20
29.985
 10
10.766
 20
30.0225
 10
10.751
 20
30.0525
 10
10.721
 20
30.0825
 10
10.661
 20
30.1125
 10
10.6235
 20
30.12
 10
10.571
 20
30.12
 10
10.5185
 20
30.105
 10
10.4735
 20
30.0825
 10
10.436
 20
30.06
 10
10.3085
 20
30.0675
 10
10.3835
 20
30.495
 10
10.871
 20
30.495
 10
10.871
 20
30.3675
 10
10.4885
 20
30.3675
 10
10.451
 20
30.1725
 10
10.5035
 20
30.2025
 10
10.5635
 20
30.225
 10
10.6235
 20
30.2325
 10
10.676
 20
30.2325
 10
10.7285
 20
30.2175
 10
10.7735
 20
30.2025
 10
10.8185
 20
30.1725
 10
10.856
 20
30.1425
 10
10.886
 20
30.0975
  0
LWPOLYLINE
  5
2D5
330
1F
100
AcDbEntity
  8
Silk_Screen
100
AcDbPolyline
 90
       12
 70
     1
 43
0.0
 10
11.265
 20
25.09
 10
11.265
 20
25.59
 10
11.68
 20
25.59
 10
11.68
 20
25.505
 10
11.365
 20
25.505
 10
11.365
 20
25.39
 10
11.65
 20
25.39
 10
11.65
 20
25.305
 10
11.365
 20
25.305
 10
11.365
 20
25.175
 10
11.68
 20
25.175
 10
11.68
 20
25.09
  0
LWPOLYLINE
  5
2D6
330
1F
100
AcDbEntity
  8
Silk_Screen
100
AcDbPolyline
 90
       20
 70
     1
 43
0.0
 10
11.355
 20
24.44
 10
11.36
 20
24.51
 10
11.375
 20
24.57
 10
11.4
 20
24.63
 10
11.43
 20
24.685
 10
11.465
 20
24.735
 10
11.5
 20
24.78
 10
11.54
 20
24.82
 10
11.58
 20
24.855
 10
11.265
 20
24.855
 10
11.265
 20
24.94
 10
11.68
 20
24.94
 10
11.68
 20
24.855
 10
11.635
 20
24.82
 10
11.59
 20
24.775
 10
11.52
 20
24.675
 10
11.495
 20
24.62
 10
11.475
 20
24.565
 10
11.465
 20
24.5
 10
11.455
 20
24.44
  0
LWPOLYLINE
  5
2D7
330
1F
100
AcDbEntity
  8
Silk_Screen
100
AcDbPolyline
 90
       82
 70
     1
 43
0.0
 10
11.411
 20
27.795
 10
11.456
 20
27.795
 10
11.501
 20
27.81
 10
11.546
 20
27.84
 10
11.5835
 20
27.87
 10
11.6135
 20
27.9
 10
11.6435
 20
27.945
 10
11.6585
 20
27.99
 10
11.6585
 20
28.0425
 10
11.651
 20
28.095
 10
11.636
 20
28.1475
 10
11.576
 20
28.2225
 10
11.486
 20
28.2675
 10
11.4335
 20
28.2825
 10
11.3885
 20
28.2825
 10
11.351
 20
28.2778125
 10
11.351
 20
28.17
 10
11.3885
 20
28.17
 10
11.4185
 20
28.1625
 10
11.456
 20
28.1475
 10
11.4785
 20
28.1325
 10
11.501
 20
28.1025
 10
11.516
 20
28.0725
 10
11.5235
 20
28.035
 10
11.516
 20
27.99
 10
11.501
 20
27.96
 10
11.4785
 20
27.93
 10
11.456
 20
27.915
 10
11.4185
 20
27.9
 10
11.3885
 20
27.8925
 10
11.351
 20
27.8925
 10
11.3135
 20
27.9
 10
11.2535
 20
27.93
 10
11.231
 20
27.96
 10
11.216
 20
27.99
 10
11.2085
 20
28.035
 10
11.216
 20
28.0725
 10
11.231
 20
28.1025
 10
11.2535
 20
28.1325
 10
11.3135
 20
28.1625
 10
11.351
 20
28.17
 10
11.351
 20
28.2778125
 10
11.3285
 20
28.275
 10
11.276
 20
28.26
 10
11.231
 20
28.23
 10
11.186
 20
28.1925
 10
11.186
 20
28.2375
 10
11.1935
 20
28.275
 10
11.2085
 20
28.32
 10
11.2535
 20
28.395
 10
11.2835
 20
28.4175
 10
11.3285
 20
28.44
 10
11.3735
 20
28.4475
 10
11.411
 20
28.44
 10
11.471
 20
28.41
 10
11.501
 20
28.38
 10
11.636
 20
28.38
 10
11.6135
 20
28.425
 10
11.5835
 20
28.47
 10
11.546
 20
28.5
 10
11.456
 20
28.545
 10
11.411
 20
28.5525
 10
11.3585
 20
28.56
 10
11.2985
 20
28.5525
 10
11.246
 20
28.5375
 10
11.1935
 20
28.5075
 10
11.1485
 20
28.4775
 10
11.1185
 20
28.44
 10
11.0885
 20
28.3875
 10
11.066
 20
28.3425
 10
11.0435
 20
28.2825
 10
11.036
 20
28.23
 10
11.036
 20
28.11
 10
11.0435
 20
28.0575
 10
11.066
 20
27.9975
 10
11.0885
 20
27.9525
 10
11.1185
 20
27.9
 10
11.1485
 20
27.8625
 10
11.1935
 20
27.8325
 10
11.246
 20
27.8025
 10
11.2985
 20
27.795
 10
11.3585
 20
27.7875
  0
LWPOLYLINE
  5
2D8
330
1F
100
AcDbEntity
  8
Silk_Screen
100
AcDbPolyline
 90
       17
 70
     1
 43
0.0
 10
12.065
 20
25.465
 10
12.115
 20
25.465
 10
12.115
 20
25.365
 10
12.05
 20
25.365
 10
12.025
 20
25.36
 10
12.01
 20
25.355
 10
11.995
 20
25.34
 10
11.975
 20
25.3
 10
11.975
 20
25.09
 10
11.875
 20
25.09
 10
11.875
 20
25.455
 10
11.965
 20
25.455
 10
11.965
 20
25.4
 10
11.98
 20
25.42
 10
11.995
 20
25.435
 10
12.015
 20
25.45
 10
12.04
 20
25.46
  0
LWPOLYLINE
  5
2D9
330
1F
100
AcDbEntity
  8
Silk_Screen
100
AcDbPolyline
 90
       52
 70
     1
 43
0.0
 10
12.175
 20
24.645
 10
12.18
 20
24.605
 10
12.18
 20
24.57
 10
12.15
 20
24.51
 10
12.125
 20
24.485
 10
12.1
 20
24.465
 10
12.07
 20
24.45
 10
12.04
 20
24.44
 10
12.005
 20
24.44
 10
11.975
 20
24.435
 10
11.935
 20
24.44
 10
11.9
 20
24.44
 10
11.865
 20
24.455
 10
11.835
 20
24.47
 10
11.805
 20
24.495
 10
11.78
 20
24.525
 10
11.765
 20
24.565
 10
11.855
 20
24.565
 10
11.875
 20
24.54
 10
11.895
 20
24.525
 10
11.92
 20
24.515
 10
11.95
 20
24.51
 10
11.975
 20
24.505
 10
12.025
 20
24.515
 10
12.05
 20
24.53
 10
12.07
 20
24.545
 10
12.085
 20
24.57
 10
12.09
 20
24.6
 10
12.085
 20
24.625
 10
12.075
 20
24.645
 10
12.055
 20
24.665
 10
12.015
 20
24.685
 10
11.99
 20
24.69
 10
11.955
 20
24.69
 10
11.92
 20
24.68
 10
11.89
 20
24.665
 10
11.865
 20
24.65
 10
11.78
 20
24.655
 10
11.83
 20
24.94
 10
12.155
 20
24.94
 10
12.155
 20
24.855
 10
11.9
 20
24.855
 10
11.875
 20
24.725
 10
11.91
 20
24.745
 10
11.95
 20
24.76
 10
11.99
 20
24.765
 10
12.025
 20
24.765
 10
12.06
 20
24.755
 10
12.09
 20
24.745
 10
12.12
 20
24.725
 10
12.145
 20
24.705
 10
12.165
 20
24.675
  0
LWPOLYLINE
  5
2DA
330
1F
100
AcDbEntity
  8
Silk_Screen
100
AcDbPolyline
 90
        4
 70
     1
 43
0.0
 10
12.265
 20
25.225
 10
12.265
 20
25.29
 10
12.68
 20
25.29
 10
12.68
 20
25.225
  0
LWPOLYLINE
  5
2DB
330
1F
100
AcDbEntity
  8
Silk_Screen
100
AcDbPolyline
 90
        4
 70
     1
 43
0.0
 10
12.265
 20
25.39
 10
12.265
 20
25.455
 10
12.68
 20
25.455
 10
12.68
 20
25.39
  0
LWPOLYLINE
  5
2DC
330
1F
100
AcDbEntity
  8
Silk_Screen
100
AcDbPolyline
 90
       13
 70
     1
 43
0.0
 10
12.2885
 20
27.795
 10
12.2885
 20
28.4175
 10
12.146
 20
27.9225
 10
12.0485
 20
27.9225
 10
11.8985
 20
28.4175
 10
11.8985
 20
27.795
 10
11.786
 20
27.795
 10
11.786
 20
28.545
 10
11.9735
 20
28.545
 10
12.101
 20
28.0425
 10
12.221
 20
28.545
 10
12.4085
 20
28.545
 10
12.4085
 20
27.795
  0
LWPOLYLINE
  5
2DD
330
1F
100
AcDbEntity
  8
Silk_Screen
100
AcDbPolyline
 90
      155
 70
     1
 43
0.0
 10
13.196
 20
-0.359
 10
13.196
 20
0.4845
 10
13.9335
 20
-0.359
 10
14.531
 20
-0.359
 10
14.812
 20
0.097
 10
15.093
 20
-0.359
 10
15.746
 20
-0.359
 10
15.746
 20
-0.022
 10
16.4625
 20
-0.022
 10
16.4995
 20
-0.0205
 10
16.5365
 20
-0.0165
 10
16.5735
 20
-0.0105
 10
16.6095
 20
-0.002
 10
16.6445
 20
0.0085
 10
16.673
 20
0.019
 10
16.701
 20
0.0315
 10
16.7275
 20
0.0455
 10
16.7535
 20
0.061
 10
16.778
 20
0.0775
 10
16.8015
 20
0.096
 10
16.823
 20
0.1145
 10
16.8435
 20
0.135
 10
16.8615
 20
0.157
 10
16.879
 20
0.1795
 10
16.894
 20
0.2035
 10
16.9085
 20
0.2285
 10
16.9185
 20
0.2505
 10
16.926
 20
0.2725
 10
16.933
 20
0.2935
 10
16.939
 20
0.3175
 10
16.9425
 20
0.34
 10
16.9455
 20
0.3635
 10
16.946
 20
0.3865
 10
16.946
 20
0.7635000000000001
 10
16.945
 20
0.7925
 10
16.9415
 20
0.8220000000000001
 10
16.936
 20
0.8505
 10
16.929
 20
0.879
 10
16.92
 20
0.907
 10
16.909
 20
0.935
 10
16.895
 20
0.9615
 10
16.8805
 20
0.987
 10
16.8635
 20
1.012
 10
16.8445
 20
1.036
 10
16.8245
 20
1.058
 10
16.803
 20
1.0795
 10
16.7795
 20
1.0995
 10
16.755
 20
1.118
 10
16.7295
 20
1.135
 10
16.702
 20
1.15
 10
16.6745
 20
1.1635
 10
16.6465
 20
1.1755
 10
16.6165
 20
1.186
 10
16.5865
 20
1.194
 10
16.5555
 20
1.2005
 10
16.5255
 20
1.205
 10
16.4935
 20
1.2085
 10
16.4625
 20
1.209
 10
16.4615
 20
1.209
 10
15.694
 20
1.209
 10
15.694
 20
1.141
 10
16.4615
 20
1.141
 10
16.4895
 20
1.1405
 10
16.5165
 20
1.138
 10
16.5435
 20
1.1335
 10
16.5705
 20
1.128
 10
16.5965
 20
1.121
 10
16.6215
 20
1.1125
 10
16.6465
 20
1.1015
 10
16.671
 20
1.09
 10
16.6935
 20
1.077
 10
16.716
 20
1.062
 10
16.7375
 20
1.0465
 10
16.757
 20
1.0295
 10
16.7755
 20
1.011
 10
16.7925
 20
0.992
 10
16.8085
 20
0.972
 10
16.8225
 20
0.9510000000000001
 10
16.835
 20
0.9285
 10
16.847
 20
0.906
 10
16.856
 20
0.884
 10
16.864
 20
0.86
 10
16.87
 20
0.8355
 10
16.8745
 20
0.812
 10
16.877
 20
0.7875
 10
16.878
 20
0.7625000000000001
 10
16.878
 20
0.3875
 10
16.8775
 20
0.3685
 10
16.8755
 20
0.35
 10
16.872
 20
0.3305
 10
16.868
 20
0.3125
 10
16.862
 20
0.2945
 10
16.8555
 20
0.2765
 10
16.8475
 20
0.2595
 10
16.836
 20
0.2385
 10
16.823
 20
0.2185
 10
16.8085
 20
0.199
 10
16.7935
 20
0.181
 10
16.777
 20
0.1645
 10
16.7585
 20
0.149
 10
16.738
 20
0.1325
 10
16.7165
 20
0.118
 10
16.6945
 20
0.1045
 10
16.671
 20
0.0925
 10
16.648
 20
0.082
 10
16.6235
 20
0.0735
 10
16.5915
 20
0.064
 10
16.5595
 20
0.0565
 10
16.5275
 20
0.0505
 10
16.4945
 20
0.0475
 10
16.4615
 20
0.046
 10
15.678
 20
0.046
 10
15.678
 20
-0.264
 10
15.2645
 20
0.425
 10
15.694
 20
1.141
 10
15.694
 20
1.209
 10
15.615
 20
1.209
 10
15.093
 20
1.209
 10
14.812
 20
0.753
 10
14.531
 20
1.209
 10
14.009
 20
1.209
 10
14.009
 20
1.141
 10
14.493
 20
1.141
 10
14.812
 20
0.623
 10
15.131
 20
1.141
 10
15.615
 20
1.141
 10
15.1855
 20
0.425
 10
15.615
 20
-0.291
 10
15.131
 20
-0.291
 10
14.812
 20
0.227
 10
14.493
 20
-0.291
 10
14.009
 20
-0.291
 10
14.4385
 20
0.425
 10
14.009
 20
1.141
 10
14.009
 20
1.209
 10
13.915
 20
1.209
 10
13.915
 20
0.3655
 10
13.1775
 20
1.209
 10
13.1465
 20
1.209
 10
12.746
 20
1.209
 10
12.746
 20
1.141
 10
13.1465
 20
1.141
 10
13.983
 20
0.1845
 10
13.983
 20
1.0525
 10
14.3595
 20
0.425
 10
13.944
 20
-0.2675
 10
13.128
 20
0.6655
 10
13.128
 20
-0.291
 10
12.746
 20
-0.291
 10
12.746
 20
1.141
 10
12.746
 20
1.209
 10
12.678
 20
1.209
 10
12.678
 20
-0.325
 10
12.712
 20
-0.325
 10
12.712
 20
-0.359
  0
LWPOLYLINE
  5
2DE
330
1F
100
AcDbEntity
  8
Silk_Screen
100
AcDbPolyline
 90
       12
 70
     1
 43
0.0
 10
13.0085
 20
27.795
 10
13.0085
 20
28.1325
 10
12.686
 20
28.1325
 10
12.686
 20
27.795
 10
12.536
 20
27.795
 10
12.536
 20
28.545
 10
12.686
 20
28.545
 10
12.686
 20
28.26
 10
13.0085
 20
28.26
 10
13.0085
 20
28.545
 10
13.1585
 20
28.545
 10
13.1585
 20
27.795
  0
LWPOLYLINE
  5
2DF
330
1F
100
AcDbEntity
  8
Silk_Screen
100
AcDbPolyline
 90
       69
 70
     1
 43
0.0
 10
13.045
 20
24.445
 10
13.08
 20
24.465
 10
13.105
 20
24.485
 10
13.13
 20
24.51
 10
13.145
 20
24.545
 10
13.16
 20
24.575
 10
13.17
 20
24.615
 10
13.175
 20
24.65
 10
13.18
 20
24.69
 10
13.175
 20
24.73
 10
13.17
 20
24.765
 10
13.16
 20
24.805
 10
13.145
 20
24.835
 10
13.13
 20
24.87
 10
13.105
 20
24.895
 10
13.08
 20
24.915
 10
13.045
 20
24.935
 10
13.01
 20
24.945
 10
12.975
 20
24.95
 10
12.975
 20
24.865
 10
13.0
 20
24.86
 10
13.02
 20
24.85
 10
13.04
 20
24.835
 10
13.055
 20
24.81
 10
13.065
 20
24.785
 10
13.075
 20
24.755
 10
13.08
 20
24.725
 10
13.08
 20
24.655
 10
13.075
 20
24.625
 10
13.065
 20
24.595
 10
13.055
 20
24.57
 10
13.04
 20
24.545
 10
13.02
 20
24.53
 10
13.0
 20
24.52
 10
12.975
 20
24.515
 10
12.95
 20
24.52
 10
12.925
 20
24.53
 10
12.91
 20
24.545
 10
12.89
 20
24.57
 10
12.88
 20
24.595
 10
12.87
 20
24.625
 10
12.865
 20
24.655
 10
12.865
 20
24.725
 10
12.87
 20
24.755
 10
12.88
 20
24.785
 10
12.89
 20
24.81
 10
12.91
 20
24.835
 10
12.925
 20
24.85
 10
12.95
 20
24.86
 10
12.975
 20
24.865
 10
12.975
 20
24.95
 10
12.935
 20
24.945
 10
12.9
 20
24.935
 10
12.84
 20
24.895
 10
12.82
 20
24.87
 10
12.8
 20
24.835
 10
12.785
 20
24.805
 10
12.775
 20
24.765
 10
12.77
 20
24.73
 10
12.765
 20
24.69
 10
12.77
 20
24.65
 10
12.775
 20
24.615
 10
12.785
 20
24.575
 10
12.8
 20
24.545
 10
12.82
 20
24.51
 10
12.84
 20
24.485
 10
12.9
 20
24.445
 10
12.935
 20
24.44
 10
12.975
 20
24.435
  0
LWPOLYLINE
  5
2E0
330
1F
100
AcDbEntity
  8
Silk_Screen
100
AcDbPolyline
 90
       17
 70
     1
 43
0.0
 10
13.105
 20
25.09
 10
13.105
 20
25.205
 10
13.18
 20
25.205
 10
13.18
 20
25.28
 10
13.105
 20
25.28
 10
13.105
 20
25.59
 10
13.015
 20
25.59
 10
13.015
 20
25.48
 10
13.015
 20
25.28
 10
12.865
 20
25.28
 10
13.015
 20
25.48
 10
13.015
 20
25.59
 10
13.0
 20
25.59
 10
12.765
 20
25.275
 10
12.765
 20
25.205
 10
13.015
 20
25.205
 10
13.015
 20
25.09
  0
LWPOLYLINE
  5
2E1
330
1F
100
AcDbEntity
  8
Silk_Screen
100
AcDbPolyline
 90
       10
 70
     1
 43
0.0
 10
13.3235
 20
27.795
 10
13.3235
 20
27.93
 10
13.721
 20
28.23
 10
13.3385
 20
28.23
 10
13.3385
 20
28.3425
 10
13.871
 20
28.3425
 10
13.871
 20
28.2075
 10
13.4885
 20
27.9075
 10
13.8635
 20
27.9075
 10
13.8635
 20
27.795
  0
LWPOLYLINE
  5
2E2
330
1F
100
AcDbEntity
  8
Silk_Screen
100
AcDbPolyline
 90
        4
 70
     1
 43
0.0
 10
13.425
 20
25.09
 10
13.425
 20
25.19
 10
13.525
 20
25.19
 10
13.525
 20
25.09
  0
LWPOLYLINE
  5
2E3
330
1F
100
AcDbEntity
  8
Silk_Screen
100
AcDbPolyline
 90
       27
 70
     1
 43
0.0
 10
13.565
 20
24.44
 10
13.565
 20
24.665
 10
13.56
 20
24.69
 10
13.55
 20
24.71
 10
13.535
 20
24.725
 10
13.515
 20
24.735
 10
13.49
 20
24.74
 10
13.465
 20
24.74
 10
13.44
 20
24.73
 10
13.42
 20
24.715
 10
13.39
 20
24.675
 10
13.38
 20
24.625
 10
13.38
 20
24.44
 10
13.29
 20
24.44
 10
13.29
 20
24.94
 10
13.38
 20
24.94
 10
13.38
 20
24.765
 10
13.41
 20
24.785
 10
13.445
 20
24.805
 10
13.515
 20
24.815
 10
13.575
 20
24.805
 10
13.6
 20
24.79
 10
13.625
 20
24.77
 10
13.64
 20
24.75
 10
13.65
 20
24.72
 10
13.655
 20
24.69
 10
13.655
 20
24.44
  0
LWPOLYLINE
  5
2E4
330
1F
100
AcDbEntity
  8
Silk_Screen
100
AcDbPolyline
 90
       37
 70
     1
 43
0.0
 10
14.075
 20
24.44
 10
14.075
 20
24.715
 10
14.07
 20
24.73
 10
14.05
 20
24.74
 10
14.035
 20
24.735
 10
14.015
 20
24.715
 10
14.015
 20
24.44
 10
13.93
 20
24.44
 10
13.93
 20
24.73
 10
13.92
 20
24.735
 10
13.905
 20
24.74
 10
13.89
 20
24.735
 10
13.88
 20
24.725
 10
13.875
 20
24.715
 10
13.875
 20
24.44
 10
13.79
 20
24.44
 10
13.79
 20
24.805
 10
13.865
 20
24.805
 10
13.865
 20
24.765
 10
13.88
 20
24.785
 10
13.895
 20
24.8
 10
13.915
 20
24.81
 10
13.94
 20
24.815
 10
13.96
 20
24.81
 10
13.98
 20
24.8
 10
13.995
 20
24.785
 10
14.005
 20
24.765
 10
14.02
 20
24.785
 10
14.035
 20
24.8
 10
14.055
 20
24.81
 10
14.08
 20
24.815
 10
14.105
 20
24.81
 10
14.125
 20
24.805
 10
14.14
 20
24.79
 10
14.15
 20
24.77
 10
14.155
 20
24.75
 10
14.155
 20
24.44
  0
LWPOLYLINE
  5
2E5
330
1F
100
AcDbEntity
  8
Silk_Screen
100
AcDbPolyline
 90
       82
 70
     1
 43
0.0
 10
14.015
 20
25.09
 10
14.045
 20
25.09
 10
14.075
 20
25.1
 10
14.105
 20
25.12
 10
14.13
 20
25.14
 10
14.15
 20
25.16
 10
14.17
 20
25.19
 10
14.18
 20
25.22
 10
14.18
 20
25.255
 10
14.175
 20
25.29
 10
14.165
 20
25.325
 10
14.125
 20
25.375
 10
14.065
 20
25.405
 10
14.03
 20
25.415
 10
14.0
 20
25.415
 10
13.975
 20
25.411875
 10
13.975
 20
25.34
 10
14.0
 20
25.34
 10
14.02
 20
25.335
 10
14.045
 20
25.325
 10
14.06
 20
25.315
 10
14.075
 20
25.295
 10
14.085
 20
25.275
 10
14.09
 20
25.25
 10
14.085
 20
25.22
 10
14.075
 20
25.2
 10
14.06
 20
25.18
 10
14.045
 20
25.17
 10
14.02
 20
25.16
 10
14.0
 20
25.155
 10
13.975
 20
25.155
 10
13.95
 20
25.16
 10
13.91
 20
25.18
 10
13.895
 20
25.2
 10
13.885
 20
25.22
 10
13.88
 20
25.25
 10
13.885
 20
25.275
 10
13.895
 20
25.295
 10
13.91
 20
25.315
 10
13.95
 20
25.335
 10
13.975
 20
25.34
 10
13.975
 20
25.411875
 10
13.96
 20
25.41
 10
13.925
 20
25.4
 10
13.895
 20
25.38
 10
13.865
 20
25.355
 10
13.865
 20
25.385
 10
13.87
 20
25.41
 10
13.88
 20
25.44
 10
13.91
 20
25.49
 10
13.93
 20
25.505
 10
13.96
 20
25.52
 10
13.99
 20
25.525
 10
14.015
 20
25.52
 10
14.055
 20
25.5
 10
14.075
 20
25.48
 10
14.165
 20
25.48
 10
14.15
 20
25.51
 10
14.13
 20
25.54
 10
14.105
 20
25.56
 10
14.045
 20
25.59
 10
14.015
 20
25.595
 10
13.98
 20
25.6
 10
13.94
 20
25.595
 10
13.905
 20
25.585
 10
13.87
 20
25.565
 10
13.84
 20
25.545
 10
13.82
 20
25.52
 10
13.8
 20
25.485
 10
13.785
 20
25.455
 10
13.77
 20
25.415
 10
13.765
 20
25.38
 10
13.765
 20
25.3
 10
13.77
 20
25.265
 10
13.785
 20
25.225
 10
13.8
 20
25.195
 10
13.82
 20
25.16
 10
13.84
 20
25.135
 10
13.87
 20
25.115
 10
13.905
 20
25.095
 10
13.94
 20
25.09
 10
13.98
 20
25.085
  0
LWPOLYLINE
  5
2E6
330
1F
100
AcDbEntity
  8
Silk_Screen
100
AcDbPolyline
 90
       73
 70
     1
 43
0.0
 10
17.335
 20
0.1625
 10
17.35
 20
0.125
 10
17.3725
 20
0.1025
 10
17.395
 20
0.0875
 10
17.425
 20
0.0725
 10
17.575
 20
0.0275
 10
17.6125
 20
0.0125
 10
17.65
 20
-0.01
 10
17.695
 20
-0.0325
 10
17.7325
 20
-0.0625
 10
17.7625
 20
-0.1
 10
17.7775
 20
-0.145
 10
17.785
 20
-0.1975
 10
17.7775
 20
-0.2575
 10
17.755
 20
-0.3025
 10
17.7175
 20
-0.34
 10
17.6725
 20
-0.37
 10
17.6275
 20
-0.3925
 10
17.575
 20
-0.4
 10
17.5225
 20
-0.4
 10
17.4775
 20
-0.4075
 10
17.425
 20
-0.4
 10
17.365
 20
-0.4
 10
17.32
 20
-0.3775
 10
17.2675
 20
-0.3475
 10
17.23
 20
-0.3175
 10
17.1925
 20
-0.2725
 10
17.17
 20
-0.22
 10
17.1625
 20
-0.16
 10
17.3125
 20
-0.16
 10
17.32
 20
-0.205
 10
17.3425
 20
-0.235
 10
17.3725
 20
-0.2575
 10
17.4025
 20
-0.2725
 10
17.4775
 20
-0.2875
 10
17.5375
 20
-0.2875
 10
17.5975
 20
-0.2725
 10
17.6275
 20
-0.25
 10
17.635
 20
-0.2125
 10
17.6275
 20
-0.175
 10
17.5825
 20
-0.13
 10
17.5225
 20
-0.115
 10
17.3875
 20
-0.0625
 10
17.3425
 20
-0.0475
 10
17.2975
 20
-0.025
 10
17.26
 20
0.005
 10
17.2225
 20
0.0425
 10
17.2
 20
0.095
 10
17.185
 20
0.1475
 10
17.1925
 20
0.2075
 10
17.215
 20
0.2525
 10
17.245
 20
0.29
 10
17.29
 20
0.32
 10
17.38
 20
0.35
 10
17.425
 20
0.3575
 10
17.4775
 20
0.365
 10
17.5675
 20
0.35
 10
17.62
 20
0.3275
 10
17.665
 20
0.305
 10
17.7025
 20
0.275
 10
17.7325
 20
0.2375
 10
17.755
 20
0.1925
 10
17.7625
 20
0.14
 10
17.6275
 20
0.14
 10
17.6125
 20
0.1775
 10
17.5825
 20
0.2075
 10
17.545
 20
0.2225
 10
17.5075
 20
0.23
 10
17.4775
 20
0.2375
 10
17.4475
 20
0.2375
 10
17.41
 20
0.23
 10
17.38
 20
0.2225
 10
17.35
 20
0.2
  0
LWPOLYLINE
  5
2E7
330
1F
100
AcDbEntity
  8
Silk_Screen
100
AcDbPolyline
 90
       57
 70
     1
 43
0.0
 10
18.28
 20
-0.4
 10
18.325
 20
-0.4
 10
18.37
 20
-0.3775
 10
18.4075
 20
-0.355
 10
18.445
 20
-0.325
 10
18.49
 20
-0.235
 10
18.34
 20
-0.235
 10
18.3175
 20
-0.265
 10
18.2875
 20
-0.2875
 10
18.2275
 20
-0.3025
 10
18.19
 20
-0.295
 10
18.1525
 20
-0.2725
 10
18.13
 20
-0.25
 10
18.115
 20
-0.22
 10
18.1075
 20
-0.1825
 10
18.1
 20
-0.1525
 10
18.4975
 20
-0.1525
 10
18.4975
 20
-0.1225
 10
18.49
 20
-0.07
 10
18.475
 20
-0.025
 10
18.4525
 20
0.0275
 10
18.4225
 20
0.065
 10
18.385
 20
0.1025
 10
18.3475
 20
0.1325
 10
18.295
 20
0.155
 10
18.235
 20
0.1625
 10
18.2275
 20
0.1615
 10
18.2275
 20
0.05
 10
18.265
 20
0.0425
 10
18.295
 20
0.02
 10
18.325
 20
-0.01
 10
18.34
 20
-0.04
 10
18.3475
 20
-0.0775
 10
18.1
 20
-0.0775
 10
18.1075
 20
-0.04
 10
18.13
 20
-0.0025
 10
18.1525
 20
0.02
 10
18.1825
 20
0.0425
 10
18.2275
 20
0.05
 10
18.2275
 20
0.1615
 10
18.175
 20
0.155
 10
18.1225
 20
0.14
 10
18.0775
 20
0.1175
 10
18.04
 20
0.0875
 10
18.01
 20
0.0425
 10
17.9875
 20
-0.0025
 10
17.9725
 20
-0.0475
 10
17.965
 20
-0.1
 10
17.965
 20
-0.1525
 10
17.9725
 20
-0.205
 10
17.9875
 20
-0.25
 10
18.01
 20
-0.295
 10
18.04
 20
-0.3325
 10
18.0775
 20
-0.37
 10
18.1225
 20
-0.3925
 10
18.175
 20
-0.4
 10
18.235
 20
-0.4075
  0
LWPOLYLINE
  5
2E8
330
1F
100
AcDbEntity
  8
Silk_Screen
100
AcDbPolyline
 90
       37
 70
     1
 43
0.0
 10
19.1275
 20
-0.4
 10
19.1275
 20
0.0125
 10
19.12
 20
0.035
 10
19.09
 20
0.05
 10
19.0675
 20
0.0425
 10
19.0375
 20
0.0125
 10
19.0375
 20
-0.4
 10
18.91
 20
-0.4
 10
18.91
 20
0.035
 10
18.895
 20
0.0425
 10
18.8725
 20
0.05
 10
18.85
 20
0.0425
 10
18.835
 20
0.0275
 10
18.8275
 20
0.0125
 10
18.8275
 20
-0.4
 10
18.7
 20
-0.4
 10
18.7
 20
0.1475
 10
18.8125
 20
0.1475
 10
18.8125
 20
0.0875
 10
18.835
 20
0.1175
 10
18.8575
 20
0.14
 10
18.8875
 20
0.155
 10
18.925
 20
0.1625
 10
18.955
 20
0.155
 10
18.985
 20
0.14
 10
19.0075
 20
0.1175
 10
19.0225
 20
0.0875
 10
19.045
 20
0.1175
 10
19.0675
 20
0.14
 10
19.0975
 20
0.155
 10
19.135
 20
0.1625
 10
19.1725
 20
0.155
 10
19.2025
 20
0.1475
 10
19.225
 20
0.125
 10
19.24
 20
0.095
 10
19.2475
 20
0.065
 10
19.2475
 20
-0.4
  0
LWPOLYLINE
  5
2E9
330
1F
100
AcDbEntity
  8
Silk_Screen
100
AcDbPolyline
 90
        4
 70
     1
 43
0.0
 10
19.66
 20
0.215
 10
19.66
 20
0.35
 10
19.8025
 20
0.35
 10
19.8025
 20
0.215
  0
LWPOLYLINE
  5
2EA
330
1F
100
AcDbEntity
  8
Silk_Screen
100
AcDbPolyline
 90
       10
 70
     1
 43
0.0
 10
19.8025
 20
-0.2875
 10
19.885
 20
-0.2875
 10
19.885
 20
-0.4
 10
19.5775
 20
-0.4
 10
19.5775
 20
-0.2875
 10
19.66
 20
-0.2875
 10
19.66
 20
0.035
 10
19.525
 20
0.035
 10
19.525
 20
0.14
 10
19.8025
 20
0.14
  0
LWPOLYLINE
  5
2EB
330
1F
100
AcDbEntity
  8
Silk_Screen
100
AcDbPolyline
 90
       51
 70
     1
 43
0.0
 10
20.2
 20
-0.1525
 10
20.2
 20
-0.1
 10
20.2075
 20
-0.0475
 10
20.2225
 20
-0.0025
 10
20.245
 20
0.0425
 10
20.32
 20
0.1175
 10
20.365
 20
0.14
 10
20.425
 20
0.155
 10
20.485
 20
0.1625
 10
20.59
 20
0.1475
 10
20.635
 20
0.125
 10
20.68
 20
0.095
 10
20.71
 20
0.065
 10
20.74
 20
0.02
 10
20.7475
 20
-0.04
 10
20.6125
 20
-0.04
 10
20.5975
 20
-0.01
 10
20.5825
 20
0.0125
 10
20.5525
 20
0.0275
 10
20.53
 20
0.035
 10
20.455
 20
0.035
 10
20.425
 20
0.02
 10
20.3725
 20
-0.0325
 10
20.3575
 20
-0.07
 10
20.35
 20
-0.1075
 10
20.35
 20
-0.145
 10
20.3575
 20
-0.1825
 10
20.3725
 20
-0.2125
 10
20.395
 20
-0.2425
 10
20.425
 20
-0.265
 10
20.455
 20
-0.28
 10
20.5
 20
-0.2875
 10
20.53
 20
-0.2875
 10
20.56
 20
-0.2725
 10
20.5825
 20
-0.2575
 10
20.605
 20
-0.2275
 10
20.6125
 20
-0.1975
 10
20.7475
 20
-0.1975
 10
20.74
 20
-0.25
 10
20.695
 20
-0.325
 10
20.6575
 20
-0.355
 10
20.62
 20
-0.3775
 10
20.575
 20
-0.4
 10
20.53
 20
-0.4
 10
20.485
 20
-0.4075
 10
20.365
 20
-0.3925
 10
20.32
 20
-0.3625
 10
20.2825
 20
-0.3325
 10
20.245
 20
-0.295
 10
20.2225
 20
-0.25
 10
20.2075
 20
-0.1975
  0
LWPOLYLINE
  5
2EC
330
1F
100
AcDbEntity
  8
Silk_Screen
100
AcDbPolyline
 90
       59
 70
     1
 43
0.0
 10
21.2875
 20
-0.4
 10
21.34
 20
-0.3925
 10
21.385
 20
-0.3625
 10
21.4225
 20
-0.3325
 10
21.4525
 20
-0.295
 10
21.475
 20
-0.25
 10
21.49
 20
-0.1975
 10
21.4975
 20
-0.1525
 10
21.4975
 20
-0.1
 10
21.49
 20
-0.0475
 10
21.475
 20
-0.0025
 10
21.4525
 20
0.0425
 10
21.4225
 20
0.08
 10
21.385
 20
0.1175
 10
21.34
 20
0.14
 10
21.2875
 20
0.155
 10
21.2275
 20
0.1625
 10
21.2275
 20
0.05
 10
21.2575
 20
0.0425
 10
21.2875
 20
0.0275
 10
21.3175
 20
0.005
 10
21.3325
 20
-0.0325
 10
21.3475
 20
-0.0625
 10
21.355
 20
-0.1075
 10
21.355
 20
-0.145
 10
21.3475
 20
-0.1825
 10
21.3325
 20
-0.22
 10
21.3175
 20
-0.25
 10
21.2875
 20
-0.28
 10
21.2575
 20
-0.295
 10
21.2275
 20
-0.3025
 10
21.19
 20
-0.295
 10
21.16
 20
-0.28
 10
21.115
 20
-0.22
 10
21.1
 20
-0.145
 10
21.1
 20
-0.1075
 10
21.1075
 20
-0.0625
 10
21.115
 20
-0.0325
 10
21.1375
 20
0.005
 10
21.16
 20
0.0275
 10
21.19
 20
0.0425
 10
21.2275
 20
0.05
 10
21.2275
 20
0.1625
 10
21.1675
 20
0.155
 10
21.1075
 20
0.14
 10
21.0625
 20
0.1175
 10
21.025
 20
0.08
 10
20.995
 20
0.0425
 10
20.9725
 20
-0.0025
 10
20.9575
 20
-0.0475
 10
20.95
 20
-0.1
 10
20.95
 20
-0.1525
 10
20.9575
 20
-0.1975
 10
20.9725
 20
-0.25
 10
20.995
 20
-0.295
 10
21.025
 20
-0.3325
 10
21.0625
 20
-0.3625
 10
21.1075
 20
-0.3925
 10
21.2275
 20
-0.4075
  0
LWPOLYLINE
  5
2ED
330
1F
100
AcDbEntity
  8
Silk_Screen
100
AcDbPolyline
 90
       28
 70
     1
 43
0.0
 10
22.0975
 20
-0.4
 10
22.0975
 20
-0.0775
 10
22.09
 20
-0.04
 10
22.075
 20
-0.01
 10
22.0525
 20
0.005
 10
22.0225
 20
0.02
 10
21.985
 20
0.0275
 10
21.9475
 20
0.02
 10
21.9175
 20
0.005
 10
21.8875
 20
-0.0175
 10
21.865
 20
-0.04
 10
21.85
 20
-0.115
 10
21.85
 20
-0.4
 10
21.7
 20
-0.4
 10
21.7
 20
0.1475
 10
21.835
 20
0.1475
 10
21.835
 20
0.065
 10
21.865
 20
0.095
 10
21.94
 20
0.14
 10
21.985
 20
0.155
 10
22.0375
 20
0.1625
 10
22.1275
 20
0.1475
 10
22.165
 20
0.125
 10
22.2025
 20
0.095
 10
22.225
 20
0.065
 10
22.24
 20
0.02
 10
22.2475
 20
-0.025
 10
22.2475
 20
-0.4
  0
LWPOLYLINE
  5
2EE
330
1F
100
AcDbEntity
  8
Silk_Screen
100
AcDbPolyline
 90
       53
 70
     1
 43
0.0
 10
22.735
 20
-0.4
 10
22.7875
 20
-0.3925
 10
22.825
 20
-0.3625
 10
22.8625
 20
-0.325
 10
22.8625
 20
-0.4
 10
22.9975
 20
-0.4
 10
22.9975
 20
0.35
 10
22.8625
 20
0.35
 10
22.8625
 20
0.0725
 10
22.825
 20
0.11
 10
22.7875
 20
0.14
 10
22.735
 20
0.155
 10
22.7275
 20
0.1565
 10
22.7275
 20
0.05
 10
22.765
 20
0.0425
 10
22.795
 20
0.0275
 10
22.8175
 20
0.005
 10
22.84
 20
-0.0325
 10
22.855
 20
-0.0625
 10
22.8625
 20
-0.1075
 10
22.8625
 20
-0.145
 10
22.855
 20
-0.1825
 10
22.84
 20
-0.22
 10
22.795
 20
-0.28
 10
22.765
 20
-0.295
 10
22.7275
 20
-0.3025
 10
22.69
 20
-0.295
 10
22.6525
 20
-0.28
 10
22.6075
 20
-0.22
 10
22.5925
 20
-0.145
 10
22.5925
 20
-0.1075
 10
22.6
 20
-0.0625
 10
22.6075
 20
-0.0325
 10
22.63
 20
0.005
 10
22.6525
 20
0.0275
 10
22.69
 20
0.0425
 10
22.7275
 20
0.05
 10
22.7275
 20
0.1565
 10
22.69
 20
0.1625
 10
22.6375
 20
0.155
 10
22.5925
 20
0.14
 10
22.555
 20
0.1175
 10
22.5175
 20
0.08
 10
22.495
 20
0.0425
 10
22.4725
 20
-0.0025
 10
22.4575
 20
-0.0475
 10
22.4575
 20
-0.1975
 10
22.4725
 20
-0.25
 10
22.495
 20
-0.295
 10
22.5175
 20
-0.3325
 10
22.5925
 20
-0.3925
 10
22.6375
 20
-0.4
 10
22.69
 20
-0.4075
  0
LWPOLYLINE
  5
2EF
330
1F
100
AcDbEntity
  8
Silk_Screen
100
AcDbPolyline
 90
       29
 70
     1
 43
0.0
 10
23.6125
 20
-0.4
 10
23.6125
 20
-0.31
 10
23.5825
 20
-0.34
 10
23.545
 20
-0.37
 10
23.5075
 20
-0.3925
 10
23.4625
 20
-0.4
 10
23.41
 20
-0.4075
 10
23.365
 20
-0.4
 10
23.3275
 20
-0.3925
 10
23.2825
 20
-0.3775
 10
23.2525
 20
-0.3475
 10
23.2225
 20
-0.31
 10
23.2075
 20
-0.2725
 10
23.2
 20
-0.2275
 10
23.2
 20
0.1475
 10
23.35
 20
0.1475
 10
23.35
 20
-0.175
 10
23.3575
 20
-0.2125
 10
23.3725
 20
-0.235
 10
23.4025
 20
-0.2575
 10
23.4325
 20
-0.2725
 10
23.5
 20
-0.2725
 10
23.53
 20
-0.2575
 10
23.56
 20
-0.235
 10
23.5825
 20
-0.205
 10
23.5975
 20
-0.175
 10
23.5975
 20
0.1475
 10
23.7475
 20
0.1475
 10
23.7475
 20
-0.4
  0
LWPOLYLINE
  5
2F0
330
1F
100
AcDbEntity
  8
Silk_Screen
100
AcDbPolyline
 90
       51
 70
     1
 43
0.0
 10
23.95
 20
-0.1525
 10
23.95
 20
-0.1
 10
23.9575
 20
-0.0475
 10
23.9725
 20
-0.0025
 10
23.995
 20
0.0425
 10
24.07
 20
0.1175
 10
24.115
 20
0.14
 10
24.175
 20
0.155
 10
24.235
 20
0.1625
 10
24.34
 20
0.1475
 10
24.385
 20
0.125
 10
24.43
 20
0.095
 10
24.46
 20
0.065
 10
24.49
 20
0.02
 10
24.4975
 20
-0.04
 10
24.3625
 20
-0.04
 10
24.3475
 20
-0.01
 10
24.3325
 20
0.0125
 10
24.3025
 20
0.0275
 10
24.28
 20
0.035
 10
24.205
 20
0.035
 10
24.175
 20
0.02
 10
24.1225
 20
-0.0325
 10
24.1075
 20
-0.07
 10
24.1
 20
-0.1075
 10
24.1
 20
-0.145
 10
24.1075
 20
-0.1825
 10
24.1225
 20
-0.2125
 10
24.145
 20
-0.2425
 10
24.175
 20
-0.265
 10
24.205
 20
-0.28
 10
24.25
 20
-0.2875
 10
24.28
 20
-0.2875
 10
24.31
 20
-0.2725
 10
24.3325
 20
-0.2575
 10
24.355
 20
-0.2275
 10
24.3625
 20
-0.1975
 10
24.4975
 20
-0.1975
 10
24.49
 20
-0.25
 10
24.445
 20
-0.325
 10
24.4075
 20
-0.355
 10
24.37
 20
-0.3775
 10
24.325
 20
-0.4
 10
24.28
 20
-0.4
 10
24.235
 20
-0.4075
 10
24.115
 20
-0.3925
 10
24.07
 20
-0.3625
 10
24.0325
 20
-0.3325
 10
23.995
 20
-0.295
 10
23.9725
 20
-0.25
 10
23.9575
 20
-0.1975
  0
LWPOLYLINE
  5
2F1
330
1F
100
AcDbEntity
  8
Silk_Screen
100
AcDbPolyline
 90
       40
 70
     1
 43
0.0
 10
24.7685
 20
29.7885
 10
24.8285
 20
29.8035
 10
24.881
 20
29.8185
 10
24.971
 20
29.8635
 10
25.016
 20
29.901
 10
25.046
 20
29.9385
 10
25.0685
 20
29.9835
 10
25.0835
 20
30.036
 10
25.091
 20
30.096
 10
25.091
 20
30.411
 10
24.9635
 20
30.411
 10
24.4685
 20
30.411
 10
24.4685
 20
30.261
 10
24.9635
 20
30.261
 10
24.9635
 20
30.0735
 10
24.941
 20
30.036
 10
24.9185
 20
30.006
 10
24.8885
 20
29.9835
 10
24.851
 20
29.961
 10
24.806
 20
29.946
 10
24.761
 20
29.9385
 10
24.671
 20
29.9385
 10
24.626
 20
29.946
 10
24.581
 20
29.961
 10
24.5435
 20
29.9835
 10
24.5135
 20
30.006
 10
24.491
 20
30.036
 10
24.4685
 20
30.0735
 10
24.4685
 20
30.261
 10
24.4685
 20
30.411
 10
24.341
 20
30.411
 10
24.341
 20
30.096
 10
24.3485
 20
30.036
 10
24.3635
 20
29.9835
 10
24.386
 20
29.9385
 10
24.416
 20
29.901
 10
24.461
 20
29.8635
 10
24.551
 20
29.8185
 10
24.6035
 20
29.8035
 10
24.6635
 20
29.7885
  0
LWPOLYLINE
  5
2F2
330
1F
100
AcDbEntity
  8
Silk_Screen
100
AcDbPolyline
 90
       10
 70
     1
 43
0.0
 10
24.341
 20
30.5385
 10
24.341
 20
30.6735
 10
24.866
 20
31.026
 10
24.341
 20
31.026
 10
24.341
 20
31.161
 10
25.091
 20
31.161
 10
25.091
 20
31.011
 10
24.566
 20
30.6735
 10
25.091
 20
30.6735
 10
25.091
 20
30.5385
  0
LWPOLYLINE
  5
2F3
330
1F
100
AcDbEntity
  8
Silk_Screen
100
AcDbPolyline
 90
       64
 70
     1
 43
0.0
 10
24.851
 20
31.2885
 10
24.851
 20
31.4385
 10
24.8885
 20
31.4535
 10
24.926
 20
31.476
 10
24.9485
 20
31.506
 10
24.971
 20
31.5435
 10
24.9785
 20
31.5885
 10
24.971
 20
31.626
 10
24.956
 20
31.6635
 10
24.9335
 20
31.6935
 10
24.896
 20
31.7235
 10
24.8585
 20
31.7385
 10
24.8135
 20
31.7535
 10
24.7685
 20
31.761
 10
24.6635
 20
31.761
 10
24.6185
 20
31.7535
 10
24.5735
 20
31.7385
 10
24.536
 20
31.7235
 10
24.4985
 20
31.6935
 10
24.476
 20
31.6635
 10
24.461
 20
31.626
 10
24.4535
 20
31.5885
 10
24.461
 20
31.5435
 10
24.476
 20
31.5135
 10
24.4985
 20
31.4835
 10
24.5285
 20
31.461
 10
24.566
 20
31.446
 10
24.6035
 20
31.4385
 10
24.6035
 20
31.5735
 10
24.716
 20
31.5735
 10
24.716
 20
31.2885
 10
24.341
 20
31.2885
 10
24.341
 20
31.371
 10
24.431
 20
31.401
 10
24.3935
 20
31.4235
 10
24.3485
 20
31.4985
 10
24.3335
 20
31.5885
 10
24.341
 20
31.6485
 10
24.3485
 20
31.701
 10
24.3785
 20
31.7535
 10
24.4085
 20
31.791
 10
24.446
 20
31.8285
 10
24.4985
 20
31.8585
 10
24.5435
 20
31.881
 10
24.6035
 20
31.896
 10
24.656
 20
31.9035
 10
24.716
 20
31.911
 10
24.776
 20
31.9035
 10
24.8285
 20
31.896
 10
24.8885
 20
31.881
 10
24.9335
 20
31.8585
 10
24.986
 20
31.8285
 10
25.0235
 20
31.791
 10
25.0535
 20
31.7535
 10
25.0835
 20
31.701
 10
25.0985
 20
31.6485
 10
25.106
 20
31.5885
 10
25.0985
 20
31.5285
 10
25.0835
 20
31.4835
 10
25.061
 20
31.431
 10
25.031
 20
31.3935
 10
24.9935
 20
31.356
 10
24.956
 20
31.326
 10
24.9035
 20
31.3035
  0
LWPOLYLINE
  5
2F4
330
1F
100
AcDbEntity
  8
Silk_Screen
100
AcDbPolyline
 90
       21
 70
     1
 43
0.0
 10
25.015
 20
0.1475
 10
25.165
 20
0.1475
 10
25.165
 20
0.035
 10
25.015
 20
0.035
 10
25.015
 20
-0.265
 10
25.03
 20
-0.28
 10
25.0525
 20
-0.2875
 10
25.165
 20
-0.2875
 10
25.165
 20
-0.4
 10
25.015
 20
-0.4
 10
24.97
 20
-0.3925
 10
24.94
 20
-0.3775
 10
24.91
 20
-0.355
 10
24.88
 20
-0.325
 10
24.865
 20
-0.2875
 10
24.865
 20
0.035
 10
24.7375
 20
0.035
 10
24.7375
 20
0.1475
 10
24.865
 20
0.1475
 10
24.865
 20
0.3125
 10
25.015
 20
0.3125
  0
LWPOLYLINE
  5
2F5
330
1F
100
AcDbEntity
  8
Silk_Screen
100
AcDbPolyline
 90
       59
 70
     1
 43
0.0
 10
25.7875
 20
-0.4
 10
25.84
 20
-0.3925
 10
25.885
 20
-0.3625
 10
25.9225
 20
-0.3325
 10
25.9525
 20
-0.295
 10
25.975
 20
-0.25
 10
25.99
 20
-0.1975
 10
25.9975
 20
-0.1525
 10
25.9975
 20
-0.1
 10
25.99
 20
-0.0475
 10
25.975
 20
-0.0025
 10
25.9525
 20
0.0425
 10
25.9225
 20
0.08
 10
25.885
 20
0.1175
 10
25.84
 20
0.14
 10
25.7875
 20
0.155
 10
25.7275
 20
0.1625
 10
25.7275
 20
0.05
 10
25.7575
 20
0.0425
 10
25.7875
 20
0.0275
 10
25.8175
 20
0.005
 10
25.8325
 20
-0.0325
 10
25.8475
 20
-0.0625
 10
25.855
 20
-0.1075
 10
25.855
 20
-0.145
 10
25.8475
 20
-0.1825
 10
25.8325
 20
-0.22
 10
25.8175
 20
-0.25
 10
25.7875
 20
-0.28
 10
25.7575
 20
-0.295
 10
25.7275
 20
-0.3025
 10
25.69
 20
-0.295
 10
25.66
 20
-0.28
 10
25.615
 20
-0.22
 10
25.6
 20
-0.145
 10
25.6
 20
-0.1075
 10
25.6075
 20
-0.0625
 10
25.615
 20
-0.0325
 10
25.6375
 20
0.005
 10
25.66
 20
0.0275
 10
25.69
 20
0.0425
 10
25.7275
 20
0.05
 10
25.7275
 20
0.1625
 10
25.6675
 20
0.155
 10
25.6075
 20
0.14
 10
25.5625
 20
0.1175
 10
25.525
 20
0.08
 10
25.495
 20
0.0425
 10
25.4725
 20
-0.0025
 10
25.4575
 20
-0.0475
 10
25.45
 20
-0.1
 10
25.45
 20
-0.1525
 10
25.4575
 20
-0.1975
 10
25.4725
 20
-0.25
 10
25.495
 20
-0.295
 10
25.525
 20
-0.3325
 10
25.5625
 20
-0.3625
 10
25.6075
 20
-0.3925
 10
25.7275
 20
-0.4075
  0
LWPOLYLINE
  5
2F6
330
1F
100
AcDbEntity
  8
Silk_Screen
100
AcDbPolyline
 90
       17
 70
     1
 43
0.0
 10
26.6125
 20
0.1625
 10
26.6875
 20
0.1625
 10
26.6875
 20
0.0125
 10
26.59
 20
0.0125
 10
26.5525
 20
0.005
 10
26.53
 20
-0.0025
 10
26.5075
 20
-0.025
 10
26.4775
 20
-0.085
 10
26.4775
 20
-0.4
 10
26.3275
 20
-0.4
 10
26.3275
 20
0.1475
 10
26.4625
 20
0.1475
 10
26.4625
 20
0.065
 10
26.485
 20
0.095
 10
26.5075
 20
0.1175
 10
26.5375
 20
0.14
 10
26.575
 20
0.155
  0
LWPOLYLINE
  5
2F7
330
1F
100
AcDbEntity
  8
Silk_Screen
100
AcDbPolyline
 90
        7
 70
     1
 43
0.0
 10
26.876
 20
31.557
 10
26.876
 20
31.707
 10
27.626
 20
31.947
 10
27.626
 20
31.782
 10
27.0635
 20
31.632
 10
27.626
 20
31.482
 10
27.626
 20
31.3245
  0
LWPOLYLINE
  5
2F8
330
1F
100
AcDbEntity
  8
Silk_Screen
100
AcDbPolyline
 90
       51
 70
     1
 43
0.0
 10
27.236
 20
29.862
 10
27.236
 20
29.997
 10
27.266
 20
30.012
 10
27.2885
 20
30.027
 10
27.3035
 20
30.057
 10
27.311
 20
30.0795
 10
27.311
 20
30.1545
 10
27.296
 20
30.1845
 10
27.2435
 20
30.237
 10
27.206
 20
30.252
 10
27.1685
 20
30.2595
 10
27.131
 20
30.2595
 10
27.0935
 20
30.252
 10
27.0635
 20
30.237
 10
27.0335
 20
30.2145
 10
27.011
 20
30.1845
 10
26.996
 20
30.1545
 10
26.9885
 20
30.1095
 10
26.9885
 20
30.0795
 10
27.0035
 20
30.0495
 10
27.0185
 20
30.027
 10
27.0485
 20
30.0045
 10
27.0785
 20
29.997
 10
27.0785
 20
29.862
 10
27.026
 20
29.8695
 10
26.951
 20
29.9145
 10
26.921
 20
29.952
 10
26.8985
 20
29.9895
 10
26.876
 20
30.0345
 10
26.876
 20
30.0795
 10
26.8685
 20
30.1245
 10
26.8835
 20
30.2445
 10
26.9135
 20
30.2895
 10
26.9435
 20
30.327
 10
26.981
 20
30.3645
 10
27.026
 20
30.387
 10
27.0785
 20
30.402
 10
27.1235
 20
30.4095
 10
27.176
 20
30.4095
 10
27.2285
 20
30.402
 10
27.2735
 20
30.387
 10
27.3185
 20
30.3645
 10
27.3935
 20
30.2895
 10
27.416
 20
30.2445
 10
27.431
 20
30.1845
 10
27.4385
 20
30.1245
 10
27.4235
 20
30.0195
 10
27.401
 20
29.9745
 10
27.371
 20
29.9295
 10
27.341
 20
29.8995
 10
27.296
 20
29.8695
  0
LWPOLYLINE
  5
2F9
330
1F
100
AcDbEntity
  8
Silk_Screen
100
AcDbPolyline
 90
       51
 70
     1
 43
0.0
 10
27.236
 20
30.612
 10
27.236
 20
30.747
 10
27.266
 20
30.762
 10
27.2885
 20
30.777
 10
27.3035
 20
30.807
 10
27.311
 20
30.8295
 10
27.311
 20
30.9045
 10
27.296
 20
30.9345
 10
27.2435
 20
30.987
 10
27.206
 20
31.002
 10
27.1685
 20
31.0095
 10
27.131
 20
31.0095
 10
27.0935
 20
31.002
 10
27.0635
 20
30.987
 10
27.0335
 20
30.9645
 10
27.011
 20
30.9345
 10
26.996
 20
30.9045
 10
26.9885
 20
30.8595
 10
26.9885
 20
30.8295
 10
27.0035
 20
30.7995
 10
27.0185
 20
30.777
 10
27.0485
 20
30.7545
 10
27.0785
 20
30.747
 10
27.0785
 20
30.612
 10
27.026
 20
30.6195
 10
26.951
 20
30.6645
 10
26.921
 20
30.702
 10
26.8985
 20
30.7395
 10
26.876
 20
30.7845
 10
26.876
 20
30.8295
 10
26.8685
 20
30.8745
 10
26.8835
 20
30.9945
 10
26.9135
 20
31.0395
 10
26.9435
 20
31.077
 10
26.981
 20
31.1145
 10
27.026
 20
31.137
 10
27.0785
 20
31.152
 10
27.1235
 20
31.1595
 10
27.176
 20
31.1595
 10
27.2285
 20
31.152
 10
27.2735
 20
31.137
 10
27.3185
 20
31.1145
 10
27.3935
 20
31.0395
 10
27.416
 20
30.9945
 10
27.431
 20
30.9345
 10
27.4385
 20
30.8745
 10
27.4235
 20
30.7695
 10
27.401
 20
30.7245
 10
27.371
 20
30.6795
 10
27.341
 20
30.6495
 10
27.296
 20
30.6195
  0
LWPOLYLINE
  5
2FA
330
1F
100
AcDbEntity
  8
Silk_Screen
100
AcDbPolyline
 90
       69
 70
     1
 43
0.0
 10
27.3475
 20
-0.0025
 10
27.3475
 20
0.02
 10
27.3325
 20
0.0425
 10
27.31
 20
0.0575
 10
27.28
 20
0.065
 10
27.2425
 20
0.0725
 10
27.205
 20
0.0725
 10
27.145
 20
0.0575
 10
27.1225
 20
0.0425
 10
27.1075
 20
0.02
 10
27.1
 20
-0.0025
 10
27.1075
 20
-0.025
 10
27.13
 20
-0.04
 10
27.1525
 20
-0.0475
 10
27.175
 20
-0.0475
 10
27.3625
 20
-0.085
 10
27.4
 20
-0.1
 10
27.43
 20
-0.115
 10
27.46
 20
-0.1375
 10
27.4825
 20
-0.1675
 10
27.4975
 20
-0.1975
 10
27.4975
 20
-0.2725
 10
27.4825
 20
-0.31
 10
27.4525
 20
-0.34
 10
27.4225
 20
-0.3625
 10
27.385
 20
-0.385
 10
27.34
 20
-0.4
 10
27.1075
 20
-0.4
 10
27.0625
 20
-0.385
 10
27.025
 20
-0.3625
 10
26.995
 20
-0.34
 10
26.9725
 20
-0.31
 10
26.9575
 20
-0.2725
 10
26.95
 20
-0.235
 10
27.085
 20
-0.235
 10
27.0925
 20
-0.2575
 10
27.1075
 20
-0.28
 10
27.13
 20
-0.295
 10
27.19
 20
-0.31
 10
27.2575
 20
-0.31
 10
27.295
 20
-0.3025
 10
27.3175
 20
-0.295
 10
27.34
 20
-0.28
 10
27.355
 20
-0.2575
 10
27.3625
 20
-0.235
 10
27.355
 20
-0.2125
 10
27.3325
 20
-0.1975
 10
27.31
 20
-0.19
 10
27.1225
 20
-0.1525
 10
27.0925
 20
-0.1375
 10
27.055
 20
-0.1225
 10
27.025
 20
-0.1
 10
27.0025
 20
-0.0775
 10
26.98
 20
-0.04
 10
26.9725
 20
-0.0025
 10
26.98
 20
0.035
 10
26.995
 20
0.0725
 10
27.0175
 20
0.1025
 10
27.055
 20
0.125
 10
27.13
 20
0.155
 10
27.175
 20
0.1625
 10
27.2725
 20
0.1625
 10
27.3175
 20
0.155
 10
27.3625
 20
0.14
 10
27.4
 20
0.125
 10
27.43
 20
0.1025
 10
27.4525
 20
0.0725
 10
27.4675
 20
0.035
 10
27.475
 20
-0.0025
  0
LWPOLYLINE
  5
2FB
330
1F
100
AcDbEntity
  8
Silk_Screen
100
AcDbPolyline
 90
       40
 70
     1
 43
0.0
 10
29.824
 20
29.8065
 10
29.884
 20
29.8215
 10
29.9365
 20
29.8365
 10
30.0265
 20
29.8815
 10
30.0715
 20
29.919
 10
30.1015
 20
29.9565
 10
30.124
 20
30.0015
 10
30.139
 20
30.054
 10
30.1465
 20
30.114
 10
30.1465
 20
30.429
 10
30.019
 20
30.429
 10
29.524
 20
30.429
 10
29.524
 20
30.279
 10
30.019
 20
30.279
 10
30.019
 20
30.0915
 10
29.9965
 20
30.054
 10
29.974
 20
30.024
 10
29.944
 20
30.0015
 10
29.9065
 20
29.979
 10
29.8615
 20
29.964
 10
29.8165
 20
29.9565
 10
29.7265
 20
29.9565
 10
29.6815
 20
29.964
 10
29.6365
 20
29.979
 10
29.599
 20
30.0015
 10
29.569
 20
30.024
 10
29.5465
 20
30.054
 10
29.524
 20
30.0915
 10
29.524
 20
30.279
 10
29.524
 20
30.429
 10
29.3965
 20
30.429
 10
29.3965
 20
30.114
 10
29.404
 20
30.054
 10
29.419
 20
30.0015
 10
29.4415
 20
29.9565
 10
29.4715
 20
29.919
 10
29.5165
 20
29.8815
 10
29.6065
 20
29.8365
 10
29.659
 20
29.8215
 10
29.719
 20
29.8065
  0
LWPOLYLINE
  5
2FC
330
1F
100
AcDbEntity
  8
Silk_Screen
100
AcDbPolyline
 90
       10
 70
     1
 43
0.0
 10
29.3965
 20
30.5565
 10
29.3965
 20
30.6915
 10
29.9215
 20
31.044
 10
29.3965
 20
31.044
 10
29.3965
 20
31.179
 10
30.1465
 20
31.179
 10
30.1465
 20
31.029
 10
29.6215
 20
30.6915
 10
30.1465
 20
30.6915
 10
30.1465
 20
30.5565
  0
LWPOLYLINE
  5
2FD
330
1F
100
AcDbEntity
  8
Silk_Screen
100
AcDbPolyline
 90
       64
 70
     1
 43
0.0
 10
29.9065
 20
31.3065
 10
29.9065
 20
31.4565
 10
29.944
 20
31.4715
 10
29.9815
 20
31.494
 10
30.004
 20
31.524
 10
30.0265
 20
31.5615
 10
30.034
 20
31.6065
 10
30.0265
 20
31.644
 10
30.0115
 20
31.6815
 10
29.989
 20
31.7115
 10
29.9515
 20
31.7415
 10
29.914
 20
31.7565
 10
29.869
 20
31.7715
 10
29.824
 20
31.779
 10
29.719
 20
31.779
 10
29.674
 20
31.7715
 10
29.629
 20
31.7565
 10
29.5915
 20
31.7415
 10
29.554
 20
31.7115
 10
29.5315
 20
31.6815
 10
29.5165
 20
31.644
 10
29.509
 20
31.6065
 10
29.5165
 20
31.5615
 10
29.5315
 20
31.5315
 10
29.554
 20
31.5015
 10
29.584
 20
31.479
 10
29.6215
 20
31.464
 10
29.659
 20
31.4565
 10
29.659
 20
31.5915
 10
29.7715
 20
31.5915
 10
29.7715
 20
31.3065
 10
29.3965
 20
31.3065
 10
29.3965
 20
31.389
 10
29.4865
 20
31.419
 10
29.449
 20
31.4415
 10
29.404
 20
31.5165
 10
29.389
 20
31.6065
 10
29.3965
 20
31.6665
 10
29.404
 20
31.719
 10
29.434
 20
31.7715
 10
29.464
 20
31.809
 10
29.5015
 20
31.8465
 10
29.554
 20
31.8765
 10
29.599
 20
31.899
 10
29.659
 20
31.914
 10
29.7115
 20
31.9215
 10
29.7715
 20
31.929
 10
29.8315
 20
31.9215
 10
29.884
 20
31.914
 10
29.944
 20
31.899
 10
29.989
 20
31.8765
 10
30.0415
 20
31.8465
 10
30.079
 20
31.809
 10
30.109
 20
31.7715
 10
30.139
 20
31.719
 10
30.154
 20
31.6665
 10
30.1615
 20
31.6065
 10
30.154
 20
31.5465
 10
30.139
 20
31.5015
 10
30.1165
 20
31.449
 10
30.0865
 20
31.4115
 10
30.049
 20
31.374
 10
30.0115
 20
31.344
 10
29.959
 20
31.3215
  0
LWPOLYLINE
  5
2FE
330
1F
100
AcDbEntity
  8
Silk_Screen
100
AcDbPolyline
 90
       45
 70
     1
 43
0.0
 10
40.6375
 20
1.125
 10
40.6375
 20
1.41
 10
40.855
 20
1.41
 10
40.885
 20
1.395
 10
40.915
 20
1.335
 10
40.9225
 20
1.2225
 10
40.93
 20
1.185
 10
40.9525
 20
1.125
 10
41.11
 20
1.125
 10
41.0875
 20
1.1625
 10
41.0725
 20
1.2225
 10
41.065
 20
1.335
 10
41.0575
 20
1.3725
 10
41.0425
 20
1.4025
 10
41.02
 20
1.4325
 10
40.9975
 20
1.455
 10
40.96
 20
1.4775
 10
40.9975
 20
1.5
 10
41.035
 20
1.53
 10
41.0575
 20
1.5675
 10
41.0725
 20
1.605
 10
41.0725
 20
1.7025
 10
41.05
 20
1.74
 10
41.0275
 20
1.785
 10
40.9975
 20
1.815
 10
40.96
 20
1.8375
 10
40.915
 20
1.86
 10
40.855
 20
1.87
 10
40.825
 20
1.875
 10
40.6375
 20
1.875
 10
40.6375
 20
1.7475
 10
40.855
 20
1.7475
 10
40.885
 20
1.725
 10
40.9
 20
1.7025
 10
40.915
 20
1.6725
 10
40.915
 20
1.6125
 10
40.9
 20
1.5825
 10
40.885
 20
1.56
 10
40.855
 20
1.545
 10
40.825
 20
1.5375
 10
40.6375
 20
1.5375
 10
40.6375
 20
1.7475
 10
40.6375
 20
1.875
 10
40.4875
 20
1.875
 10
40.4875
 20
1.125
  0
LWPOLYLINE
  5
2FF
330
1F
100
AcDbEntity
  8
Silk_Screen
100
AcDbPolyline
 90
       10
 70
     1
 43
0.0
 10
41.2375
 20
1.125
 10
41.2375
 20
1.875
 10
41.86
 20
1.875
 10
41.86
 20
1.7475
 10
41.3875
 20
1.7475
 10
41.3875
 20
1.56
 10
41.8
 20
1.56
 10
41.8
 20
1.44
 10
41.3875
 20
1.44
 10
41.3875
 20
1.125
  0
LWPOLYLINE
  5
300
330
1F
100
AcDbEntity
  8
Silk_Screen
100
AcDbPolyline
 90
       69
 70
     1
 43
0.0
 10
42.4075
 20
1.1325
 10
42.46
 20
1.1625
 10
42.4975
 20
1.1925
 10
42.535
 20
1.23
 10
42.5575
 20
1.2825
 10
42.58
 20
1.3275
 10
42.595
 20
1.3875
 10
42.6025
 20
1.44
 10
42.61
 20
1.5
 10
42.6025
 20
1.56
 10
42.595
 20
1.6125
 10
42.58
 20
1.6725
 10
42.5575
 20
1.7175
 10
42.535
 20
1.77
 10
42.4975
 20
1.8075
 10
42.46
 20
1.8375
 10
42.4075
 20
1.8675
 10
42.355
 20
1.8825
 10
42.3025
 20
1.89
 10
42.3025
 20
1.7625
 10
42.34
 20
1.755
 10
42.37
 20
1.74
 10
42.4
 20
1.7175
 10
42.4225
 20
1.68
 10
42.4375
 20
1.6425
 10
42.4525
 20
1.5975
 10
42.46
 20
1.5525
 10
42.46
 20
1.4475
 10
42.4525
 20
1.4025
 10
42.4375
 20
1.3575
 10
42.4225
 20
1.32
 10
42.4
 20
1.2825
 10
42.37
 20
1.26
 10
42.34
 20
1.245
 10
42.3025
 20
1.2375
 10
42.265
 20
1.245
 10
42.2275
 20
1.26
 10
42.205
 20
1.2825
 10
42.175
 20
1.32
 10
42.16
 20
1.3575
 10
42.145
 20
1.4025
 10
42.1375
 20
1.4475
 10
42.1375
 20
1.5525
 10
42.145
 20
1.5975
 10
42.16
 20
1.6425
 10
42.175
 20
1.68
 10
42.205
 20
1.7175
 10
42.2275
 20
1.74
 10
42.265
 20
1.755
 10
42.3025
 20
1.7625
 10
42.3025
 20
1.89
 10
42.2425
 20
1.8825
 10
42.19
 20
1.8675
 10
42.1
 20
1.8075
 10
42.07
 20
1.77
 10
42.04
 20
1.7175
 10
42.0175
 20
1.6725
 10
42.0025
 20
1.6125
 10
41.995
 20
1.56
 10
41.9875
 20
1.5
 10
41.995
 20
1.44
 10
42.0025
 20
1.3875
 10
42.0175
 20
1.3275
 10
42.04
 20
1.2825
 10
42.07
 20
1.23
 10
42.1
 20
1.1925
 10
42.19
 20
1.1325
 10
42.2425
 20
1.125
 10
42.3025
 20
1.1175
  0
LWPOLYLINE
  5
301
330
1F
100
AcDbEntity
  8
Silk_Screen
100
AcDbPolyline
 90
       30
 70
     1
 43
0.0
 10
43.21
 20
1.875
 10
43.36
 20
1.875
 10
43.36
 20
1.29
 10
43.315
 20
1.215
 10
43.285
 20
1.185
 10
43.2475
 20
1.1625
 10
43.2025
 20
1.14
 10
43.15
 20
1.125
 10
42.9475
 20
1.125
 10
42.9025
 20
1.14
 10
42.8575
 20
1.1625
 10
42.82
 20
1.185
 10
42.7825
 20
1.215
 10
42.76
 20
1.2525
 10
42.745
 20
1.29
 10
42.7375
 20
1.335
 10
42.7375
 20
1.875
 10
42.8875
 20
1.875
 10
42.8875
 20
1.3725
 10
42.895
 20
1.335
 10
42.91
 20
1.305
 10
42.9325
 20
1.275
 10
42.9925
 20
1.245
 10
43.03
 20
1.2375
 10
43.0675
 20
1.2375
 10
43.105
 20
1.245
 10
43.1425
 20
1.26
 10
43.165
 20
1.275
 10
43.195
 20
1.305
 10
43.21
 20
1.335
  0
LWPOLYLINE
  5
302
330
1F
100
AcDbEntity
  8
Silk_Screen
100
AcDbPolyline
 90
        8
 70
     1
 43
0.0
 10
43.7275
 20
1.125
 10
43.7275
 20
1.7475
 10
43.4875
 20
1.7475
 10
43.4875
 20
1.875
 10
44.11
 20
1.875
 10
44.11
 20
1.7475
 10
43.8775
 20
1.7475
 10
43.8775
 20
1.125
  0
LWPOLYLINE
  5
303
330
1F
100
AcDbEntity
  8
Silk_Screen
100
AcDbPolyline
 90
       98
 70
     1
 43
0.0
 10
16.358
 20
0.353
 10
16.364
 20
0.3545
 10
16.381
 20
0.3565
 10
16.394
 20
0.3595
 10
16.4035
 20
0.3635
 10
16.412
 20
0.3665
 10
16.4225
 20
0.371
 10
16.435
 20
0.3785
 10
16.4455
 20
0.386
 10
16.4555
 20
0.394
 10
16.464
 20
0.402
 10
16.474
 20
0.4105
 10
16.4825
 20
0.4215
 10
16.4905
 20
0.432
 10
16.5045
 20
0.455
 10
16.5105
 20
0.468
 10
16.5155
 20
0.479
 10
16.5205
 20
0.4925
 10
16.525
 20
0.5085000000000001
 10
16.529
 20
0.5245
 10
16.5315
 20
0.5415
 10
16.533
 20
0.5575
 10
16.534
 20
0.5750000000000001
 10
16.532
 20
0.6135
 10
16.529
 20
0.633
 10
16.525
 20
0.651
 10
16.521
 20
0.67
 10
16.5155
 20
0.6875
 10
16.5025
 20
0.721
 10
16.4935
 20
0.737
 10
16.484
 20
0.7525000000000001
 10
16.476
 20
0.764
 10
16.4675
 20
0.7745
 10
16.4585
 20
0.7845
 10
16.4475
 20
0.795
 10
16.4365
 20
0.8035
 10
16.426
 20
0.811
 10
16.4175
 20
0.8165
 10
16.4075
 20
0.8215
 10
16.3965
 20
0.8255
 10
16.389
 20
0.8275
 10
16.3815
 20
0.8305
 10
16.3695
 20
0.833
 10
16.3595
 20
0.8335
 10
16.351
 20
0.834
 10
16.349
 20
0.834
 10
15.746
 20
0.834
 10
15.746
 20
0.766
 10
16.349
 20
0.766
 10
16.3545
 20
0.7655000000000001
 10
16.3605
 20
0.765
 10
16.3625
 20
0.7645000000000001
 10
16.369
 20
0.7625000000000001
 10
16.3765
 20
0.7605000000000001
 10
16.3795
 20
0.7595000000000001
 10
16.3825
 20
0.7575000000000001
 10
16.388
 20
0.754
 10
16.3965
 20
0.7485
 10
16.4035
 20
0.743
 10
16.4095
 20
0.7375
 10
16.4155
 20
0.7305
 10
16.422
 20
0.723
 10
16.427
 20
0.7155
 10
16.4345
 20
0.7030000000000001
 10
16.4405
 20
0.6920000000000001
 10
16.4515
 20
0.6655
 10
16.455
 20
0.653
 10
16.459
 20
0.637
 10
16.462
 20
0.621
 10
16.464
 20
0.6065
 10
16.466
 20
0.5750000000000001
 10
16.465
 20
0.5635
 10
16.4635
 20
0.5495
 10
16.462
 20
0.5375
 10
16.459
 20
0.5265
 10
16.4555
 20
0.5135
 10
16.4525
 20
0.505
 10
16.4445
 20
0.487
 10
16.4395
 20
0.4795
 10
16.4345
 20
0.471
 10
16.4285
 20
0.4635
 10
16.424
 20
0.4575
 10
16.418
 20
0.452
 10
16.4105
 20
0.445
 10
16.4045
 20
0.44
 10
16.398
 20
0.4355
 10
16.3915
 20
0.432
 10
16.386
 20
0.4295
 10
16.3785
 20
0.4265
 10
16.373
 20
0.4245
 10
16.369
 20
0.4235
 10
16.352
 20
0.4215
 10
16.35
 20
0.421
 10
15.746
 20
0.421
 10
15.746
 20
0.766
 10
15.746
 20
0.834
 10
15.678
 20
0.834
 10
15.678
 20
0.353
  0
ENDSEC
  0
SECTION
  2
OBJECTS
  0
DICTIONARY
  5
C
330
0
100
AcDbDictionary
281
     1
  3
ACAD_GROUP
350
D
  3
ACAD_LAYOUT
350
1A
  3
ACAD_MATERIAL
350
3B
  3
ACAD_MLEADERSTYLE
350
32B
  3
ACAD_MLINESTYLE
350
17
  3
ACAD_PLOTSETTINGS
350
19
  3
ACAD_PLOTSTYLENAME
350
E
  3
ACAD_TABLESTYLE
350
32A
  3
ACAD_VISUALSTYLE
350
2A
  0
DICTIONARY
  5
D
102
{ACAD_REACTORS
330
C
102
}
330
C
100
AcDbDictionary
281
     1
  0
DICTIONARY
  5
1A
102
{ACAD_REACTORS
330
C
102
}
330
C
100
AcDbDictionary
281
     1
  3
Layout1
350
1E
  3
Layout2
350
26
  3
Model
350
22
  0
DICTIONARY
  5
3B
102
{ACAD_REACTORS
330
C
102
}
330
C
100
AcDbDictionary
281
     1
  3
ByBlock
350
3D
  3
ByLayer
350
3C
  3
Global
350
3E
  0
DICTIONARY
  5
32B
102
{ACAD_REACTORS
330
C
102
}
330
C
100
AcDbDictionary
281
     1
  0
DICTIONARY
  5
17
102
{ACAD_REACTORS
330
C
102
}
330
C
100
AcDbDictionary
281
     1
  3
Standard
350
18
  0
DICTIONARY
  5
19
102
{ACAD_REACTORS
330
C
102
}
330
C
100
AcDbDictionary
281
     1
  0
ACDBDICTIONARYWDFLT
  5
E
102
{ACAD_REACTORS
330
C
102
}
330
C
100
AcDbDictionary
281
     1
  3
Normal
350
F
100
AcDbDictionaryWithDefault
340
F
  0
DICTIONARY
  5
32A
102
{ACAD_REACTORS
330
C
102
}
330
C
100
AcDbDictionary
281
     1
  0
DICTIONARY
  5
2A
102
{ACAD_REACTORS
330
C
102
}
330
C
100
AcDbDictionary
281
     1
  3
2dWireframe
350
2F
  3
3D Hidden
350
31
  3
3dWireframe
350
30
  3
Basic
350
32
  3
Brighten
350
36
  3
ColorChange
350
3A
  3
Conceptual
350
34
  3
Dim
350
35
  3
Facepattern
350
39
  3
Flat
350
2B
  3
FlatWithEdges
350
2C
  3
Gouraud
350
2D
  3
GouraudWithEdges
350
2E
  3
Linepattern
350
38
  3
Realistic
350
33
  3
Thicken
350
37
  0
LAYOUT
  5
1E
102
{ACAD_REACTORS
330
1A
102
}
330
1A
100
AcDbPlotSettings
  1

  2
none_device
  4

  6

 40
0.0
 41
0.0
 42
0.0
 43
0.0
 44
0.0
 45
0.0
 46
0.0
 47
0.0
 48
0.0
 49
0.0
140
0.0
141
0.0
142
1.0
143
1.0
 70
   688
 72
     0
 73
     0
 74
     5
  7

 75
    16
 76
     0
 77
     2
 78
   300
147
1.0
148
0.0
149
0.0
100
AcDbLayout
  1
Layout1
 70
     1
 71
     1
 10
0.0
 20
0.0
 11
12.0
 21
9.0
 12
0.0
 22
0.0
 32
0.0
 14
1.000000000000000E+20
 24
1.000000000000000E+20
 34
1.000000000000000E+20
 15
-1.000000000000000E+20
 25
-1.000000000000000E+20
 35
-1.000000000000000E+20
146
0.0
 13
0.0
 23
0.0
 33
0.0
 16
1.0
 26
0.0
 36
0.0
 17
0.0
 27
1.0
 37
0.0
 76
     0
330
1B
  0
LAYOUT
  5
26
102
{ACAD_REACTORS
330
1A
102
}
330
1A
100
AcDbPlotSettings
  1

  2
none_device
  4

  6

 40
0.0
 41
0.0
 42
0.0
 43
0.0
 44
0.0
 45
0.0
 46
0.0
 47
0.0
 48
0.0
 49
0.0
140
0.0
141
0.0
142
1.0
143
1.0
 70
   688
 72
     0
 73
     0
 74
     5
  7

 75
    16
 76
     0
 77
     2
 78
   300
147
1.0
148
0.0
149
0.0
100
AcDbLayout
  1
Layout2
 70
     1
 71
     2
 10
0.0
 20
0.0
 11
0.0
 21
0.0
 12
0.0
 22
0.0
 32
0.0
 14
0.0
 24
0.0
 34
0.0
 15
0.0
 25
0.0
 35
0.0
146
0.0
 13
0.0
 23
0.0
 33
0.0
 16
1.0
 26
0.0
 36
0.0
 17
0.0
 27
1.0
 37
0.0
 76
     0
330
23
  0
LAYOUT
  5
22
102
{ACAD_REACTORS
330
1A
102
}
330
1A
100
AcDbPlotSettings
  1

  2
none_device
  4

  6

 40
0.0
 41
0.0
 42
0.0
 43
0.0
 44
0.0
 45
0.0
 46
0.0
 47
0.0
 48
0.0
 49
0.0
140
0.0
141
0.0
142
1.0
143
1.0
 70
  1712
 72
     0
 73
     0
 74
     0
  7

 75
     0
 76
     0
 77
     2
 78
   300
147
1.0
148
0.0
149
0.0
100
AcDbLayout
  1
Model
 70
     1
 71
     0
 10
0.0
 20
0.0
 11
12.0
 21
9.0
 12
0.0
 22
0.0
 32
0.0
 14
1.000000000000000E+20
 24
1.000000000000000E+20
 34
1.000000000000000E+20
 15
-1.000000000000000E+20
 25
-1.000000000000000E+20
 35
-1.000000000000000E+20
146
0.0
 13
0.0
 23
0.0
 33
0.0
 16
1.0
 26
0.0
 36
0.0
 17
0.0
 27
1.0
 37
0.0
 76
     0
330
1F
331
29
  0
MATERIAL
  5
3D
102
{ACAD_REACTORS
330
3B
102
}
102
{ACAD_XDICTIONARY
360
326
102
}
330
3B
100
AcDbMaterial
  1
ByBlock
  0
MATERIAL
  5
3C
102
{ACAD_REACTORS
330
3B
102
}
102
{ACAD_XDICTIONARY
360
324
102
}
330
3B
100
AcDbMaterial
  1
ByLayer
  0
MATERIAL
  5
3E
102
{ACAD_REACTORS
330
3B
102
}
102
{ACAD_XDICTIONARY
360
328
102
}
330
3B
100
AcDbMaterial
  1
Global
  0
MLINESTYLE
  5
18
102
{ACAD_REACTORS
330
17
102
}
330
17
100
AcDbMlineStyle
  2
Standard
 70
     0
  3

 62
   256
 51
90.0
 52
90.0
 71
     2
 49
0.5
 62
   256
  6
BYLAYER
 49
-0.5
 62
   256
  6
BYLAYER
  0
ACDBPLACEHOLDER
  5
F
102
{ACAD_REACTORS
330
E
102
}
330
E
  0
VISUALSTYLE
  5
2F
102
{ACAD_REACTORS
330
2A
102
}
102
{ACAD_XDICTIONARY
360
30C
102
}
330
2A
100
AcDbVisualStyle
  2
2dWireframe
 70
     4
 71
     0
 72
     2
 73
     0
 90
        0
 40
-0.6
 41
-30.0
 62
     5
 63
     7
421
 16777215
 74
     1
 91
        4
 64
     7
 65
   257
 75
     1
175
     1
 42
1.0
 92
        0
 66
   257
 43
1.0
 76
     1
 77
     6
 78
     2
 67
     7
 79
     5
170
     0
171
     0
290
     0
174
     0
 93
        1
 44
0.0
173
     0
291
     0
 45
0.0
1001
ACAD
1000
AcDbSavedByObjectVersion
1070
     0
  0
VISUALSTYLE
  5
31
102
{ACAD_REACTORS
330
2A
102
}
102
{ACAD_XDICTIONARY
360
310
102
}
330
2A
100
AcDbVisualStyle
  2
3D Hidden
 70
     6
 71
     1
 72
     2
 73
     2
 90
        0
 40
-0.6
 41
-30.0
 62
     5
 63
     7
421
 16777215
 74
     2
 91
        2
 64
     7
 65
   257
 75
     2
175
     1
 42
40.0
 92
        0
 66
   257
 43
1.0
 76
     1
 77
     6
 78
     2
 67
     7
 79
     3
170
     0
171
     0
290
     0
174
     0
 93
        1
 44
0.0
173
     0
291
     0
 45
0.0
1001
ACAD
1000
AcDbSavedByObjectVersion
1070
     0
  0
VISUALSTYLE
  5
30
102
{ACAD_REACTORS
330
2A
102
}
102
{ACAD_XDICTIONARY
360
30E
102
}
330
2A
100
AcDbVisualStyle
  2
3dWireframe
 70
     5
 71
     0
 72
     2
 73
     0
 90
        0
 40
-0.6
 41
-30.0
 62
     5
 63
     7
421
 16777215
 74
     1
 91
        4
 64
     7
 65
   257
 75
     1
175
     1
 42
1.0
 92
        0
 66
   257
 43
1.0
 76
     1
 77
     6
 78
     2
 67
     7
 79
     5
170
     0
171
     0
290
     0
174
     0
 93
        1
 44
0.0
173
     0
291
     0
 45
0.0
1001
ACAD
1000
AcDbSavedByObjectVersion
1070
     0
  0
VISUALSTYLE
  5
32
102
{ACAD_REACTORS
330
2A
102
}
102
{ACAD_XDICTIONARY
360
312
102
}
330
2A
100
AcDbVisualStyle
  2
Basic
 70
     7
 71
     1
 72
     0
 73
     1
 90
        0
 40
-0.6
 41
-30.0
 62
     5
 63
     7
421
 16777215
 74
     0
 91
        4
 64
     7
 65
   257
 75
     1
175
     1
 42
1.0
 92
        8
 66
     7
 43
1.0
 76
     1
 77
     6
 78
     2
 67
     7
 79
     5
170
     0
171
     0
290
     0
174
     0
 93
        1
 44
0.0
173
     0
291
     1
 45
0.0
1001
ACAD
1000
AcDbSavedByObjectVersion
1070
     0
  0
VISUALSTYLE
  5
36
102
{ACAD_REACTORS
330
2A
102
}
102
{ACAD_XDICTIONARY
360
31A
102
}
330
2A
100
AcDbVisualStyle
  2
Brighten
 70
    12
 71
     2
 72
     2
 73
     0
 90
        0
 40
-0.6
 41
-30.0
 62
     5
 63
     7
421
 16777215
 74
     1
 91
        4
 64
     7
 65
   257
 75
     1
175
     1
 42
1.0
 92
        8
 66
     7
 43
1.0
 76
     1
 77
     6
 78
     2
 67
     7
 79
     5
170
     0
171
     0
290
     0
174
     0
 93
        1
 44
50.0
173
     0
291
     1
 45
0.0
1001
ACAD
1000
AcDbSavedByObjectVersion
1070
     0
  0
VISUALSTYLE
  5
3A
102
{ACAD_REACTORS
330
2A
102
}
102
{ACAD_XDICTIONARY
360
322
102
}
330
2A
100
AcDbVisualStyle
  2
ColorChange
 70
    16
 71
     2
 72
     2
 73
     3
 90
        0
 40
-0.6
 41
-30.0
 62
     5
 63
     8
421
  8421504
 74
     1
 91
        4
 64
     7
 65
   257
 75
     1
175
     1
 42
1.0
 92
        8
 66
     8
424
  8421504
 43
1.0
 76
     1
 77
     6
 78
     2
 67
     7
 79
     5
170
     0
171
     0
290
     0
174
     0
 93
        1
 44
0.0
173
     0
291
     1
 45
0.0
1001
ACAD
1000
AcDbSavedByObjectVersion
1070
     0
  0
VISUALSTYLE
  5
34
102
{ACAD_REACTORS
330
2A
102
}
102
{ACAD_XDICTIONARY
360
316
102
}
330
2A
100
AcDbVisualStyle
  2
Conceptual
 70
     9
 71
     3
 72
     2
 73
     0
 90
        0
 40
-0.6
 41
-30.0
 62
     5
 63
     7
421
 16777215
 74
     2
 91
        2
 64
     7
 65
   257
 75
     1
175
     1
 42
40.0
 92
        8
 66
     7
 43
1.0
 76
     1
 77
     6
 78
     2
 67
     7
 79
     3
170
     0
171
     0
290
     0
174
     0
 93
        1
 44
0.0
173
     0
291
     0
 45
0.0
1001
ACAD
1000
AcDbSavedByObjectVersion
1070
     0
  0
VISUALSTYLE
  5
35
102
{ACAD_REACTORS
330
2A
102
}
102
{ACAD_XDICTIONARY
360
318
102
}
330
2A
100
AcDbVisualStyle
  2
Dim
 70
    11
 71
     2
 72
     2
 73
     0
 90
        0
 40
-0.6
 41
-30.0
 62
     5
 63
     7
421
 16777215
 74
     1
 91
        4
 64
     7
 65
   257
 75
     1
175
     1
 42
1.0
 92
        8
 66
     7
 43
1.0
 76
     1
 77
     6
 78
     2
 67
     7
 79
     5
170
     0
171
     0
290
     0
174
     0
 93
        1
 44
-50.0
173
     0
291
     1
 45
0.0
1001
ACAD
1000
AcDbSavedByObjectVersion
1070
     0
  0
VISUALSTYLE
  5
39
102
{ACAD_REACTORS
330
2A
102
}
102
{ACAD_XDICTIONARY
360
320
102
}
330
2A
100
AcDbVisualStyle
  2
Facepattern
 70
    15
 71
     2
 72
     2
 73
     0
 90
        0
 40
-0.6
 41
-30.0
 62
     5
 63
     7
421
 16777215
 74
     1
 91
        4
 64
     7
 65
   257
 75
     1
175
     1
 42
1.0
 92
        8
 66
     7
 43
1.0
 76
     1
 77
     6
 78
     2
 67
     7
 79
     5
170
     0
171
     0
290
     0
174
     0
 93
        1
 44
0.0
173
     0
291
     1
 45
0.0
1001
ACAD
1000
AcDbSavedByObjectVersion
1070
     0
  0
VISUALSTYLE
  5
2B
102
{ACAD_REACTORS
330
2A
102
}
102
{ACAD_XDICTIONARY
360
304
102
}
330
2A
100
AcDbVisualStyle
  2
Flat
 70
     0
 71
     2
 72
     1
 73
     1
 90
        2
 40
-0.6
 41
30.0
 62
     5
 63
     7
421
 16777215
 74
     0
 91
        4
 64
     7
 65
   257
 75
     1
175
     1
 42
1.0
 92
        8
 66
     7
 43
1.0
 76
     1
 77
     6
 78
     2
 67
     7
 79
     5
170
     0
171
     0
290
     0
174
     0
 93
       13
 44
0.0
173
     0
291
     1
 45
0.0
1001
ACAD
1000
AcDbSavedByObjectVersion
1070
     0
  0
VISUALSTYLE
  5
2C
102
{ACAD_REACTORS
330
2A
102
}
102
{ACAD_XDICTIONARY
360
306
102
}
330
2A
100
AcDbVisualStyle
  2
FlatWithEdges
 70
     1
 71
     2
 72
     1
 73
     1
 90
        2
 40
-0.6
 41
30.0
 62
     5
 63
     7
421
 16777215
 74
     1
 91
        4
 64
     7
 65
   257
 75
     1
175
     1
 42
1.0
 92
        0
 66
   257
 43
1.0
 76
     1
 77
     6
 78
     2
 67
     7
 79
     5
170
     0
171
     0
290
     0
174
     0
 93
       13
 44
0.0
173
     0
291
     1
 45
0.0
1001
ACAD
1000
AcDbSavedByObjectVersion
1070
     0
  0
VISUALSTYLE
  5
2D
102
{ACAD_REACTORS
330
2A
102
}
102
{ACAD_XDICTIONARY
360
308
102
}
330
2A
100
AcDbVisualStyle
  2
Gouraud
 70
     2
 71
     2
 72
     2
 73
     1
 90
        2
 40
-0.6
 41
30.0
 62
     5
 63
     7
421
 16777215
 74
     0
 91
        4
 64
     7
 65
   257
 75
     1
175
     1
 42
1.0
 92
        0
 66
     7
 43
1.0
 76
     1
 77
     6
 78
     2
 67
     7
 79
     5
170
     0
171
     0
290
     0
174
     0
 93
       13
 44
0.0
173
     0
291
     1
 45
0.0
1001
ACAD
1000
AcDbSavedByObjectVersion
1070
     0
  0
VISUALSTYLE
  5
2E
102
{ACAD_REACTORS
330
2A
102
}
102
{ACAD_XDICTIONARY
360
30A
102
}
330
2A
100
AcDbVisualStyle
  2
GouraudWithEdges
 70
     3
 71
     2
 72
     2
 73
     1
 90
        2
 40
-0.6
 41
30.0
 62
     5
 63
     7
421
 16777215
 74
     1
 91
        4
 64
     7
 65
   257
 75
     1
175
     1
 42
1.0
 92
        0
 66
   257
 43
1.0
 76
     1
 77
     6
 78
     2
 67
     7
 79
     5
170
     0
171
     0
290
     0
174
     0
 93
       13
 44
0.0
173
     0
291
     1
 45
0.0
1001
ACAD
1000
AcDbSavedByObjectVersion
1070
     0
  0
VISUALSTYLE
  5
38
102
{ACAD_REACTORS
330
2A
102
}
102
{ACAD_XDICTIONARY
360
31E
102
}
330
2A
100
AcDbVisualStyle
  2
Linepattern
 70
    14
 71
     2
 72
     2
 73
     0
 90
        0
 40
-0.6
 41
-30.0
 62
     5
 63
     7
421
 16777215
 74
     1
 91
        4
 64
     7
 65
   257
 75
     7
175
     7
 42
1.0
 92
        8
 66
     7
 43
1.0
 76
     1
 77
     6
 78
     2
 67
     7
 79
     5
170
     0
171
     0
290
     0
174
     0
 93
        1
 44
0.0
173
     0
291
     1
 45
0.0
1001
ACAD
1000
AcDbSavedByObjectVersion
1070
     0
  0
VISUALSTYLE
  5
33
102
{ACAD_REACTORS
330
2A
102
}
102
{ACAD_XDICTIONARY
360
314
102
}
330
2A
100
AcDbVisualStyle
  2
Realistic
 70
     8
 71
     2
 72
     2
 73
     0
 90
        0
 40
-0.6
 41
-30.0
 62
     5
 63
     7
421
 16777215
 74
     1
 91
        0
 64
     7
 65
   257
 75
     1
175
     1
 42
1.0
 92
        8
 66
     8
424
  7895160
 43
1.0
 76
     1
 77
     6
 78
     2
 67
     7
 79
     5
170
     0
171
     0
290
     0
174
     0
 93
       13
 44
0.0
173
     0
291
     0
 45
0.0
1001
ACAD
1000
AcDbSavedByObjectVersion
1070
     0
  0
VISUALSTYLE
  5
37
102
{ACAD_REACTORS
330
2A
102
}
102
{ACAD_XDICTIONARY
360
31C
102
}
330
2A
100
AcDbVisualStyle
  2
Thicken
 70
    13
 71
     2
 72
     2
 73
     0
 90
        0
 40
-0.6
 41
-30.0
 62
     5
 63
     7
421
 16777215
 74
     1
 91
        4
 64
     7
 65
   257
 75
     1
175
     1
 42
1.0
 92
       12
 66
     7
 43
1.0
 76
     1
 77
     6
 78
     2
 67
     7
 79
     5
170
     0
171
     0
290
     0
174
     0
 93
        1
 44
0.0
173
     0
291
     1
 45
0.0
1001
ACAD
1000
AcDbSavedByObjectVersion
1070
     0
  0
DICTIONARY
  5
326
330
3D
100
AcDbDictionary
280
     1
281
     1
  3
ACAD_XREC_ROUNDTRIP
360
327
  0
DICTIONARY
  5
324
330
3C
100
AcDbDictionary
280
     1
281
     1
  3
ACAD_XREC_ROUNDTRIP
360
325
  0
DICTIONARY
  5
328
330
3E
100
AcDbDictionary
280
     1
281
     1
  3
ACAD_XREC_ROUNDTRIP
360
329
  0
DICTIONARY
  5
30C
330
2F
100
AcDbDictionary
280
     1
281
     1
  3
ACAD_XREC_ROUNDTRIP
360
30D
  0
DICTIONARY
  5
310
330
31
100
AcDbDictionary
280
     1
281
     1
  3
ACAD_XREC_ROUNDTRIP
360
311
  0
DICTIONARY
  5
30E
330
30
100
AcDbDictionary
280
     1
281
     1
  3
ACAD_XREC_ROUNDTRIP
360
30F
  0
DICTIONARY
  5
312
330
32
100
AcDbDictionary
280
     1
281
     1
  3
ACAD_XREC_ROUNDTRIP
360
313
  0
DICTIONARY
  5
31A
330
36
100
AcDbDictionary
280
     1
281
     1
  3
ACAD_XREC_ROUNDTRIP
360
31B
  0
DICTIONARY
  5
322
330
3A
100
AcDbDictionary
280
     1
281
     1
  3
ACAD_XREC_ROUNDTRIP
360
323
  0
DICTIONARY
  5
316
330
34
100
AcDbDictionary
280
     1
281
     1
  3
ACAD_XREC_ROUNDTRIP
360
317
  0
DICTIONARY
  5
318
330
35
100
AcDbDictionary
280
     1
281
     1
  3
ACAD_XREC_ROUNDTRIP
360
319
  0
DICTIONARY
  5
320
330
39
100
AcDbDictionary
280
     1
281
     1
  3
ACAD_XREC_ROUNDTRIP
360
321
  0
DICTIONARY
  5
304
330
2B
100
AcDbDictionary
280
     1
281
     1
  3
ACAD_XREC_ROUNDTRIP
360
305
  0
DICTIONARY
  5
306
330
2C
100
AcDbDictionary
280
     1
281
     1
  3
ACAD_XREC_ROUNDTRIP
360
307
  0
DICTIONARY
  5
308
330
2D
100
AcDbDictionary
280
     1
281
     1
  3
ACAD_XREC_ROUNDTRIP
360
309
  0
DICTIONARY
  5
30A
330
2E
100
AcDbDictionary
280
     1
281
     1
  3
ACAD_XREC_ROUNDTRIP
360
30B
  0
DICTIONARY
  5
31E
330
38
100
AcDbDictionary
280
     1
281
     1
  3
ACAD_XREC_ROUNDTRIP
360
31F
  0
DICTIONARY
  5
314
330
33
100
AcDbDictionary
280
     1
281
     1
  3
ACAD_XREC_ROUNDTRIP
360
315
  0
DICTIONARY
  5
31C
330
37
100
AcDbDictionary
280
     1
281
     1
  3
ACAD_XREC_ROUNDTRIP
360
31D
  0
XRECORD
  5
327
102
{ACAD_REACTORS
330
326
102
}
330
326
100
AcDbXrecord
280
     1
102
MATERIAL
148
0.0
149
0.0
149
0.0
 93
        0
 94
      127
282
     0
 72
     1
 77
     1
171
     1
175
     1
179
     1
273
     0
  0
XRECORD
  5
325
102
{ACAD_REACTORS
330
324
102
}
330
324
100
AcDbXrecord
280
     1
102
MATERIAL
148
0.0
149
0.0
149
0.0
 93
        0
 94
      127
282
     0
 72
     1
 77
     1
171
     1
175
     1
179
     1
273
     0
  0
XRECORD
  5
329
102
{ACAD_REACTORS
330
328
102
}
330
328
100
AcDbXrecord
280
     1
102
MATERIAL
148
0.0
149
0.0
149
0.0
 93
        0
 94
      127
282
     0
 72
     1
 77
     1
171
     1
175
     1
179
     1
273
     0
  0
XRECORD
  5
30D
102
{ACAD_REACTORS
330
30C
102
}
330
30C
100
AcDbXrecord
280
     1
102
RTVSPropertyOp0
 70
     1
102
RTVSPropertyOp1
 70
     1
102
RTVSPropertyOp2
 70
     1
102
RTVSPropertyOp3
 70
     1
102
RTVSPropertyOp4
 70
     1
102
RTVSPropertyOp5
 70
     1
102
RTVSPropertyOp6
 70
     1
102
RTVSPropertyOp7
 70
     1
102
RTVSPropertyOp8
 70
     1
102
RTVSPropertyOp9
 70
     1
102
RTVSPropertyOp10
 70
     1
102
RTVSPropertyOp11
 70
     1
102
RTVSPropertyOp12
 70
     1
102
RTVSPropertyOp13
 70
     1
102
RTVSPropertyOp14
 70
     1
102
RTVSPropertyOp15
 70
     1
102
RTVSPropertyOp16
 70
     1
102
RTVSPropertyOp17
 70
     1
102
RTVSPropertyOp18
 70
     1
102
RTVSPropertyOp19
 70
     1
102
RTVSPropertyOp20
 70
     1
102
RTVSPropertyOp21
 70
     1
102
RTVSPropertyOp22
 70
     1
102
RTVSPropertyOp23
 70
     1
102
RTVSPropertyOp24
 70
     1
102
RTVSPropertyOp25
 70
     1
102
RTVSPropertyOp26
 70
     1
102
RTVSPropertyOp27
 70
     1
  0
XRECORD
  5
311
102
{ACAD_REACTORS
330
310
102
}
330
310
100
AcDbXrecord
280
     1
102
RTVSPropertyOp0
 70
     1
102
RTVSPropertyOp1
 70
     1
102
RTVSPropertyOp2
 70
     1
102
RTVSPropertyOp3
 70
     1
102
RTVSPropertyOp4
 70
     1
102
RTVSPropertyOp5
 70
     1
102
RTVSPropertyOp6
 70
     1
102
RTVSPropertyOp7
 70
     1
102
RTVSPropertyOp8
 70
     1
102
RTVSPropertyOp9
 70
     1
102
RTVSPropertyOp10
 70
     1
102
RTVSPropertyOp11
 70
     1
102
RTVSPropertyOp12
 70
     1
102
RTVSPropertyOp13
 70
     1
102
RTVSPropertyOp14
 70
     1
102
RTVSPropertyOp15
 70
     1
102
RTVSPropertyOp16
 70
     1
102
RTVSPropertyOp17
 70
     1
102
RTVSPropertyOp18
 70
     1
102
RTVSPropertyOp19
 70
     1
102
RTVSPropertyOp20
 70
     1
102
RTVSPropertyOp21
 70
     1
102
RTVSPropertyOp22
 70
     1
102
RTVSPropertyOp23
 70
     1
102
RTVSPropertyOp24
 70
     1
102
RTVSPropertyOp25
 70
     1
102
RTVSPropertyOp26
 70
     1
102
RTVSPropertyOp27
 70
     1
  0
XRECORD
  5
30F
102
{ACAD_REACTORS
330
30E
102
}
330
30E
100
AcDbXrecord
280
     1
102
RTVSPropertyOp0
 70
     1
102
RTVSPropertyOp1
 70
     1
102
RTVSPropertyOp2
 70
     1
102
RTVSPropertyOp3
 70
     1
102
RTVSPropertyOp4
 70
     1
102
RTVSPropertyOp5
 70
     1
102
RTVSPropertyOp6
 70
     1
102
RTVSPropertyOp7
 70
     1
102
RTVSPropertyOp8
 70
     1
102
RTVSPropertyOp9
 70
     1
102
RTVSPropertyOp10
 70
     1
102
RTVSPropertyOp11
 70
     1
102
RTVSPropertyOp12
 70
     1
102
RTVSPropertyOp13
 70
     1
102
RTVSPropertyOp14
 70
     1
102
RTVSPropertyOp15
 70
     1
102
RTVSPropertyOp16
 70
     1
102
RTVSPropertyOp17
 70
     1
102
RTVSPropertyOp18
 70
     1
102
RTVSPropertyOp19
 70
     1
102
RTVSPropertyOp20
 70
     1
102
RTVSPropertyOp21
 70
     1
102
RTVSPropertyOp22
 70
     1
102
RTVSPropertyOp23
 70
     1
102
RTVSPropertyOp24
 70
     1
102
RTVSPropertyOp25
 70
     1
102
RTVSPropertyOp26
 70
     1
102
RTVSPropertyOp27
 70
     1
  0
XRECORD
  5
313
102
{ACAD_REACTORS
330
312
102
}
330
312
100
AcDbXrecord
280
     1
102
RTVSPropertyOp0
 70
     1
102
RTVSPropertyOp1
 70
     1
102
RTVSPropertyOp2
 70
     1
102
RTVSPropertyOp3
 70
     1
102
RTVSPropertyOp4
 70
     1
102
RTVSPropertyOp5
 70
     1
102
RTVSPropertyOp6
 70
     1
102
RTVSPropertyOp7
 70
     1
102
RTVSPropertyOp8
 70
     1
102
RTVSPropertyOp9
 70
     1
102
RTVSPropertyOp10
 70
     1
102
RTVSPropertyOp11
 70
     1
102
RTVSPropertyOp12
 70
     1
102
RTVSPropertyOp13
 70
     1
102
RTVSPropertyOp14
 70
     1
102
RTVSPropertyOp15
 70
     1
102
RTVSPropertyOp16
 70
     1
102
RTVSPropertyOp17
 70
     1
102
RTVSPropertyOp18
 70
     1
102
RTVSPropertyOp19
 70
     1
102
RTVSPropertyOp20
 70
     1
102
RTVSPropertyOp21
 70
     1
102
RTVSPropertyOp22
 70
     1
102
RTVSPropertyOp23
 70
     1
102
RTVSPropertyOp24
 70
     1
102
RTVSPropertyOp25
 70
     1
102
RTVSPropertyOp26
 70
     1
102
RTVSPropertyOp27
 70
     1
  0
XRECORD
  5
31B
102
{ACAD_REACTORS
330
31A
102
}
330
31A
100
AcDbXrecord
280
     1
102
RTVSPropertyOp0
 70
     1
102
RTVSPropertyOp1
 70
     1
102
RTVSPropertyOp2
 70
     1
102
RTVSPropertyOp3
 70
     1
102
RTVSPropertyOp4
 70
     1
102
RTVSPropertyOp5
 70
     1
102
RTVSPropertyOp6
 70
     1
102
RTVSPropertyOp7
 70
     1
102
RTVSPropertyOp8
 70
     1
102
RTVSPropertyOp9
 70
     1
102
RTVSPropertyOp10
 70
     1
102
RTVSPropertyOp11
 70
     1
102
RTVSPropertyOp12
 70
     1
102
RTVSPropertyOp13
 70
     1
102
RTVSPropertyOp14
 70
     1
102
RTVSPropertyOp15
 70
     1
102
RTVSPropertyOp16
 70
     1
102
RTVSPropertyOp17
 70
     1
102
RTVSPropertyOp18
 70
     1
102
RTVSPropertyOp19
 70
     1
102
RTVSPropertyOp20
 70
     1
102
RTVSPropertyOp21
 70
     1
102
RTVSPropertyOp22
 70
     1
102
RTVSPropertyOp23
 70
     1
102
RTVSPropertyOp24
 70
     1
102
RTVSPropertyOp25
 70
     1
102
RTVSPropertyOp26
 70
     1
102
RTVSPropertyOp27
 70
     1
  0
XRECORD
  5
323
102
{ACAD_REACTORS
330
322
102
}
330
322
100
AcDbXrecord
280
     1
102
RTVSPropertyOp0
 70
     1
102
RTVSPropertyOp1
 70
     1
102
RTVSPropertyOp2
 70
     1
102
RTVSPropertyOp3
 70
     1
102
RTVSPropertyOp4
 70
     1
102
RTVSPropertyOp5
 70
     1
102
RTVSPropertyOp6
 70
     1
102
RTVSPropertyOp7
 70
     1
102
RTVSPropertyOp8
 70
     1
102
RTVSPropertyOp9
 70
     1
102
RTVSPropertyOp10
 70
     1
102
RTVSPropertyOp11
 70
     1
102
RTVSPropertyOp12
 70
     1
102
RTVSPropertyOp13
 70
     1
102
RTVSPropertyOp14
 70
     1
102
RTVSPropertyOp15
 70
     1
102
RTVSPropertyOp16
 70
     1
102
RTVSPropertyOp17
 70
     1
102
RTVSPropertyOp18
 70
     1
102
RTVSPropertyOp19
 70
     1
102
RTVSPropertyOp20
 70
     1
102
RTVSPropertyOp21
 70
     1
102
RTVSPropertyOp22
 70
     1
102
RTVSPropertyOp23
 70
     1
102
RTVSPropertyOp24
 70
     1
102
RTVSPropertyOp25
 70
     1
102
RTVSPropertyOp26
 70
     1
102
RTVSPropertyOp27
 70
     1
  0
XRECORD
  5
317
102
{ACAD_REACTORS
330
316
102
}
330
316
100
AcDbXrecord
280
     1
102
RTVSPropertyOp0
 70
     1
102
RTVSPropertyOp1
 70
     1
102
RTVSPropertyOp2
 70
     1
102
RTVSPropertyOp3
 70
     1
102
RTVSPropertyOp4
 70
     1
102
RTVSPropertyOp5
 70
     1
102
RTVSPropertyOp6
 70
     1
102
RTVSPropertyOp7
 70
     1
102
RTVSPropertyOp8
 70
     1
102
RTVSPropertyOp9
 70
     1
102
RTVSPropertyOp10
 70
     1
102
RTVSPropertyOp11
 70
     1
102
RTVSPropertyOp12
 70
     1
102
RTVSPropertyOp13
 70
     1
102
RTVSPropertyOp14
 70
     1
102
RTVSPropertyOp15
 70
     1
102
RTVSPropertyOp16
 70
     1
102
RTVSPropertyOp17
 70
     1
102
RTVSPropertyOp18
 70
     1
102
RTVSPropertyOp19
 70
     1
102
RTVSPropertyOp20
 70
     1
102
RTVSPropertyOp21
 70
     1
102
RTVSPropertyOp22
 70
     1
102
RTVSPropertyOp23
 70
     1
102
RTVSPropertyOp24
 70
     1
102
RTVSPropertyOp25
 70
     1
102
RTVSPropertyOp26
 70
     1
102
RTVSPropertyOp27
 70
     1
  0
XRECORD
  5
319
102
{ACAD_REACTORS
330
318
102
}
330
318
100
AcDbXrecord
280
     1
102
RTVSPropertyOp0
 70
     1
102
RTVSPropertyOp1
 70
     1
102
RTVSPropertyOp2
 70
     1
102
RTVSPropertyOp3
 70
     1
102
RTVSPropertyOp4
 70
     1
102
RTVSPropertyOp5
 70
     1
102
RTVSPropertyOp6
 70
     1
102
RTVSPropertyOp7
 70
     1
102
RTVSPropertyOp8
 70
     1
102
RTVSPropertyOp9
 70
     1
102
RTVSPropertyOp10
 70
     1
102
RTVSPropertyOp11
 70
     1
102
RTVSPropertyOp12
 70
     1
102
RTVSPropertyOp13
 70
     1
102
RTVSPropertyOp14
 70
     1
102
RTVSPropertyOp15
 70
     1
102
RTVSPropertyOp16
 70
     1
102
RTVSPropertyOp17
 70
     1
102
RTVSPropertyOp18
 70
     1
102
RTVSPropertyOp19
 70
     1
102
RTVSPropertyOp20
 70
     1
102
RTVSPropertyOp21
 70
     1
102
RTVSPropertyOp22
 70
     1
102
RTVSPropertyOp23
 70
     1
102
RTVSPropertyOp24
 70
     1
102
RTVSPropertyOp25
 70
     1
102
RTVSPropertyOp26
 70
     1
102
RTVSPropertyOp27
 70
     1
  0
XRECORD
  5
321
102
{ACAD_REACTORS
330
320
102
}
330
320
100
AcDbXrecord
280
     1
102
RTVSPropertyOp0
 70
     1
102
RTVSPropertyOp1
 70
     1
102
RTVSPropertyOp2
 70
     1
102
RTVSPropertyOp3
 70
     1
102
RTVSPropertyOp4
 70
     1
102
RTVSPropertyOp5
 70
     1
102
RTVSPropertyOp6
 70
     1
102
RTVSPropertyOp7
 70
     1
102
RTVSPropertyOp8
 70
     1
102
RTVSPropertyOp9
 70
     1
102
RTVSPropertyOp10
 70
     1
102
RTVSPropertyOp11
 70
     1
102
RTVSPropertyOp12
 70
     1
102
RTVSPropertyOp13
 70
     1
102
RTVSPropertyOp14
 70
     1
102
RTVSPropertyOp15
 70
     1
102
RTVSPropertyOp16
 70
     1
102
RTVSPropertyOp17
 70
     1
102
RTVSPropertyOp18
 70
     1
102
RTVSPropertyOp19
 70
     1
102
RTVSPropertyOp20
 70
     1
102
RTVSPropertyOp21
 70
     1
102
RTVSPropertyOp22
 70
     1
102
RTVSPropertyOp23
 70
     1
102
RTVSPropertyOp24
 70
     1
102
RTVSPropertyOp25
 70
     1
102
RTVSPropertyOp26
 70
     1
102
RTVSPropertyOp27
 70
     1
  0
XRECORD
  5
305
102
{ACAD_REACTORS
330
304
102
}
330
304
100
AcDbXrecord
280
     1
102
RTVSPropertyOp0
 70
     1
102
RTVSPropertyOp1
 70
     1
102
RTVSPropertyOp2
 70
     1
102
RTVSPropertyOp3
 70
     1
102
RTVSPropertyOp4
 70
     1
102
RTVSPropertyOp5
 70
     1
102
RTVSPropertyOp6
 70
     1
102
RTVSPropertyOp7
 70
     1
102
RTVSPropertyOp8
 70
     1
102
RTVSPropertyOp9
 70
     1
102
RTVSPropertyOp10
 70
     1
102
RTVSPropertyOp11
 70
     1
102
RTVSPropertyOp12
 70
     1
102
RTVSPropertyOp13
 70
     1
102
RTVSPropertyOp14
 70
     1
102
RTVSPropertyOp15
 70
     1
102
RTVSPropertyOp16
 70
     1
102
RTVSPropertyOp17
 70
     1
102
RTVSPropertyOp18
 70
     1
102
RTVSPropertyOp19
 70
     1
102
RTVSPropertyOp20
 70
     1
102
RTVSPropertyOp21
 70
     1
102
RTVSPropertyOp22
 70
     1
102
RTVSPropertyOp23
 70
     1
102
RTVSPropertyOp24
 70
     1
102
RTVSPropertyOp25
 70
     1
102
RTVSPropertyOp26
 70
     1
102
RTVSPropertyOp27
 70
     1
  0
XRECORD
  5
307
102
{ACAD_REACTORS
330
306
102
}
330
306
100
AcDbXrecord
280
     1
102
RTVSPropertyOp0
 70
     1
102
RTVSPropertyOp1
 70
     1
102
RTVSPropertyOp2
 70
     1
102
RTVSPropertyOp3
 70
     1
102
RTVSPropertyOp4
 70
     1
102
RTVSPropertyOp5
 70
     1
102
RTVSPropertyOp6
 70
     1
102
RTVSPropertyOp7
 70
     1
102
RTVSPropertyOp8
 70
     1
102
RTVSPropertyOp9
 70
     1
102
RTVSPropertyOp10
 70
     1
102
RTVSPropertyOp11
 70
     1
102
RTVSPropertyOp12
 70
     1
102
RTVSPropertyOp13
 70
     1
102
RTVSPropertyOp14
 70
     1
102
RTVSPropertyOp15
 70
     1
102
RTVSPropertyOp16
 70
     1
102
RTVSPropertyOp17
 70
     1
102
RTVSPropertyOp18
 70
     1
102
RTVSPropertyOp19
 70
     1
102
RTVSPropertyOp20
 70
     1
102
RTVSPropertyOp21
 70
     1
102
RTVSPropertyOp22
 70
     1
102
RTVSPropertyOp23
 70
     1
102
RTVSPropertyOp24
 70
     1
102
RTVSPropertyOp25
 70
     1
102
RTVSPropertyOp26
 70
     1
102
RTVSPropertyOp27
 70
     1
  0
XRECORD
  5
309
102
{ACAD_REACTORS
330
308
102
}
330
308
100
AcDbXrecord
280
     1
102
RTVSPropertyOp0
 70
     1
102
RTVSPropertyOp1
 70
     1
102
RTVSPropertyOp2
 70
     1
102
RTVSPropertyOp3
 70
     1
102
RTVSPropertyOp4
 70
     1
102
RTVSPropertyOp5
 70
     1
102
RTVSPropertyOp6
 70
     1
102
RTVSPropertyOp7
 70
     1
102
RTVSPropertyOp8
 70
     1
102
RTVSPropertyOp9
 70
     1
102
RTVSPropertyOp10
 70
     1
102
RTVSPropertyOp11
 70
     1
102
RTVSPropertyOp12
 70
     1
102
RTVSPropertyOp13
 70
     1
102
RTVSPropertyOp14
 70
     1
102
RTVSPropertyOp15
 70
     1
102
RTVSPropertyOp16
 70
     1
102
RTVSPropertyOp17
 70
     1
102
RTVSPropertyOp18
 70
     1
102
RTVSPropertyOp19
 70
     1
102
RTVSPropertyOp20
 70
     1
102
RTVSPropertyOp21
 70
     1
102
RTVSPropertyOp22
 70
     1
102
RTVSPropertyOp23
 70
     1
102
RTVSPropertyOp24
 70
     1
102
RTVSPropertyOp25
 70
     1
102
RTVSPropertyOp26
 70
     1
102
RTVSPropertyOp27
 70
     1
  0
XRECORD
  5
30B
102
{ACAD_REACTORS
330
30A
102
}
330
30A
100
AcDbXrecord
280
     1
102
RTVSPropertyOp0
 70
     1
102
RTVSPropertyOp1
 70
     1
102
RTVSPropertyOp2
 70
     1
102
RTVSPropertyOp3
 70
     1
102
RTVSPropertyOp4
 70
     1
102
RTVSPropertyOp5
 70
     1
102
RTVSPropertyOp6
 70
     1
102
RTVSPropertyOp7
 70
     1
102
RTVSPropertyOp8
 70
     1
102
RTVSPropertyOp9
 70
     1
102
RTVSPropertyOp10
 70
     1
102
RTVSPropertyOp11
 70
     1
102
RTVSPropertyOp12
 70
     1
102
RTVSPropertyOp13
 70
     1
102
RTVSPropertyOp14
 70
     1
102
RTVSPropertyOp15
 70
     1
102
RTVSPropertyOp16
 70
     1
102
RTVSPropertyOp17
 70
     1
102
RTVSPropertyOp18
 70
     1
102
RTVSPropertyOp19
 70
     1
102
RTVSPropertyOp20
 70
     1
102
RTVSPropertyOp21
 70
     1
102
RTVSPropertyOp22
 70
     1
102
RTVSPropertyOp23
 70
     1
102
RTVSPropertyOp24
 70
     1
102
RTVSPropertyOp25
 70
     1
102
RTVSPropertyOp26
 70
     1
102
RTVSPropertyOp27
 70
     1
  0
XRECORD
  5
31F
102
{ACAD_REACTORS
330
31E
102
}
330
31E
100
AcDbXrecord
280
     1
102
RTVSPropertyOp0
 70
     1
102
RTVSPropertyOp1
 70
     1
102
RTVSPropertyOp2
 70
     1
102
RTVSPropertyOp3
 70
     1
102
RTVSPropertyOp4
 70
     1
102
RTVSPropertyOp5
 70
     1
102
RTVSPropertyOp6
 70
     1
102
RTVSPropertyOp7
 70
     1
102
RTVSPropertyOp8
 70
     1
102
RTVSPropertyOp9
 70
     1
102
RTVSPropertyOp10
 70
     1
102
RTVSPropertyOp11
 70
     1
102
RTVSPropertyOp12
 70
     1
102
RTVSPropertyOp13
 70
     1
102
RTVSPropertyOp14
 70
     1
102
RTVSPropertyOp15
 70
     1
102
RTVSPropertyOp16
 70
     1
102
RTVSPropertyOp17
 70
     1
102
RTVSPropertyOp18
 70
     1
102
RTVSPropertyOp19
 70
     1
102
RTVSPropertyOp20
 70
     1
102
RTVSPropertyOp21
 70
     1
102
RTVSPropertyOp22
 70
     1
102
RTVSPropertyOp23
 70
     1
102
RTVSPropertyOp24
 70
     1
102
RTVSPropertyOp25
 70
     1
102
RTVSPropertyOp26
 70
     1
102
RTVSPropertyOp27
 70
     1
  0
XRECORD
  5
315
102
{ACAD_REACTORS
330
314
102
}
330
314
100
AcDbXrecord
280
     1
102
RTVSPropertyOp0
 70
     1
102
RTVSPropertyOp1
 70
     1
102
RTVSPropertyOp2
 70
     1
102
RTVSPropertyOp3
 70
     1
102
RTVSPropertyOp4
 70
     1
102
RTVSPropertyOp5
 70
     1
102
RTVSPropertyOp6
 70
     1
102
RTVSPropertyOp7
 70
     1
102
RTVSPropertyOp8
 70
     1
102
RTVSPropertyOp9
 70
     1
102
RTVSPropertyOp10
 70
     1
102
RTVSPropertyOp11
 70
     1
102
RTVSPropertyOp12
 70
     1
102
RTVSPropertyOp13
 70
     1
102
RTVSPropertyOp14
 70
     1
102
RTVSPropertyOp15
 70
     1
102
RTVSPropertyOp16
 70
     1
102
RTVSPropertyOp17
 70
     1
102
RTVSPropertyOp18
 70
     1
102
RTVSPropertyOp19
 70
     1
102
RTVSPropertyOp20
 70
     1
102
RTVSPropertyOp21
 70
     1
102
RTVSPropertyOp22
 70
     1
102
RTVSPropertyOp23
 70
     1
102
RTVSPropertyOp24
 70
     1
102
RTVSPropertyOp25
 70
     1
102
RTVSPropertyOp26
 70
     1
102
RTVSPropertyOp27
 70
     1
  0
XRECORD
  5
31D
102
{ACAD_REACTORS
330
31C
102
}
330
31C
100
AcDbXrecord
280
     1
102
RTVSPropertyOp0
 70
     1
102
RTVSPropertyOp1
 70
     1
102
RTVSPropertyOp2
 70
     1
102
RTVSPropertyOp3
 70
     1
102
RTVSPropertyOp4
 70
     1
102
RTVSPropertyOp5
 70
     1
102
RTVSPropertyOp6
 70
     1
102
RTVSPropertyOp7
 70
     1
102
RTVSPropertyOp8
 70
     1
102
RTVSPropertyOp9
 70
     1
102
RTVSPropertyOp10
 70
     1
102
RTVSPropertyOp11
 70
     1
102
RTVSPropertyOp12
 70
     1
102
RTVSPropertyOp13
 70
     1
102
RTVSPropertyOp14
 70
     1
102
RTVSPropertyOp15
 70
     1
102
RTVSPropertyOp16
 70
     1
102
RTVSPropertyOp17
 70
     1
102
RTVSPropertyOp18
 70
     1
102
RTVSPropertyOp19
 70
     1
102
RTVSPropertyOp20
 70
     1
102
RTVSPropertyOp21
 70
     1
102
RTVSPropertyOp22
 70
     1
102
RTVSPropertyOp23
 70
     1
102
RTVSPropertyOp24
 70
     1
102
RTVSPropertyOp25
 70
     1
102
RTVSPropertyOp26
 70
     1
102
RTVSPropertyOp27
 70
     1
  0
ENDSEC
  0
EOF
